» » »

Newton Faulkner, Uncomfortably Slow Tabs (ver.1)

Artists:  A B C D E F G H I J K L M N O P Q R S T U V W X Y Z # 

Uncomfortably Slow Tabs (ver.1)

Newton Faulkner Tabs
 Rating:
4/5 (4 votes)
Uncomfortably Slow lessons Tabs too difficult? Try these video lessons and learn fast
                
Tuning:Standard - Capo on 4th
      Fsharp add 4th,9th
e|-------------------|
B|-----5-------------|
G|-------------------|
D|-----4-------------|
A|-----5-------------|
E|-----x-------------|
       EMaj7 (add 13th)
e|-----------------|
B|----(10)---------|
G|-----------------|
D|-----9-----------|
A|-----7-----------|
E|-----8-----------|
      G sharp minor
e|---------------|
B|---------------|
G|---------------|
D|----2----------|
A|----2----------|
E|---------------|
      B Major
e|-----3------|
B|-----3------|
G|------------|
D|------------|
A|-----2------|
E|-----3------|
      E Maj7
e|-------------|
B|-------------|
G|-------------|
D|-----2-------|
A|-----3-------|
E|-----x-------|
     F Sharp Major
e|-----2-------|
B|-----3-------|
G|-----2-------|
D|-------------|
A|-------------|
E|-----x-------|

Fret positions are counted up from the Capo (4th Fret)

Working on the last bit

F"add4th,9th               EMaj7
Travelling again, I know exactly how its gonna end?G"m                               
               EMaj
The routine daydreams starts as I get up?
I`m holding up the queue because my ticket won`t go through?I know it should be simple but, it`s not
F'Maj                    EMaj
So, don`t take my photograph?Cause I don`t wanna know how it looks to feel like this?As 
and people pass?
(working on this bit)
It feels like standing still but, I know?I`m just moving uncomfortably slow yeah slow

| /  slide up
| \  slide down
| h  hammer-on
| p  pull-off
| ~  vibrato
| +  harmonic
| x  Mute note
            
Submit corrections

comments powered by Disqus
↑ Back to top | Newton Faulkner Tabs for Uncomfortably Slow. Lyrics for acoustic guitar and electric guitar. Tablatures and chords are parodies/interpretations of the original songs. You may use it for private study, scholarship, research or language learning purposes only