» » »

Send Me On My Way Tabs (ver.2)

Artists:  A B C D E F G H I J K L M N O P Q R S T U V W X Y Z # 

Send Me On My Way Tabs (ver.2)

Newton Faulkner
Rating:
0/5 (0 votes)

Hard to play? Try these video lessons and learn fast.
                Newton live says that he was considering covering a rusted root song instead of the more 
teardrop by massive attack, and he plays a cool little riff from it that i have decided 
like this

just send me on my way...

e-------3--3--------------3--3--------------3--3--------------3--3--------|
B-1-----------1-1-1--1----------3-3-3--1----------3-3-3--1----------3-3-3-|
G-----0-----------------0-----------------0-----------------0-------------|
D-------------------------------------------------------------------------|
A-3------------------3-----------------3-----------------3----------------|
E-------------------------------------------------------------------------|

e-------3--3--------------3--3--------------3--3--------------3--3--------|
B-1-----------3-3-3--1----------3-3-3--1----------3-3-3--1----------3-3-3-|
G----2------------------2-----------------2-----------------2-------------|
D-3------------------3-----------------3-----------------3----------------|
A-------------------------------------------------------------------------|
E-------------------------------------------------------------------------|

Some Cs and Fs for verses and choruses but this is the only bit i'm sure on
            
Hard to play? Try these video lessons and learn fast. | Correct




comments powered by Disqus
↑ Back to top | Tablatures and chords are parodies/interpretations of the original songs. You may use it for private study, scholarship, research or language learning purposes only