» » »

Newton Faulkner, People Should Smile More Tabs (ver.1)

Artists:  A B C D E F G H I J K L M N O P Q R S T U V W X Y Z # 

People Should Smile More Tabs (ver.1)

Newton Faulkner Tabs
Rating:
0/5 (0 votes)
People Should Smile More lessons Tabs too difficult? Try these video lessons and learn fast
                Hey, ive never tried making a tab this complicated so i have got most of it.  This tab 
completly right but it is based on the chords that he has used.  THIS IS THE BEST I CAN DO!!
P.S THE LAYOUT AND LYRICS ARE AT THE BOTTOM

Key                     Chords:G
                               G 1st inversion (G1st) (B as the bottom note)
s=slide                        D
h=hammer on                    C
p=pull off                     Em


Intro
(THIS TAB CAN ALSO BE USED IN THE VERSES.)

E-----3------------------------------------3--------------------------------|
B-----3-------------------------------0----3--------------------------------|
G------------------------5-----5-5s7s5----------------------5---5--7--------|
D----------------------4-------5-5s7s5--------------------4---4--5--7-------|
A--------------5h7p5-5----5s7----------------------7p5--5---------3--5------|
E--3-----3-3s7--------------------------3-----3-3s7----7--------------5h7-3-|
     Slide with third finger

Bridge 1 and 2

MUFFLE THE SOUND WITH YOUR PALM.......
Arppegiated
E----------------------------------------------------------|
B--------------------3-------------------------------3-----|
G--------0----0----2---------0---------0-----0-----2-------|
D------0----0----0-----0---2---------0-----0-----0-----0---|
A----2----2----2---------3-----3---2-----2-----2---------3-|
E--3-----------------------------3-------------------------|

The chorus

   G       G1st       D
   I can't change the world
       C                G          G1st         D
   Cos tryin' to make a difference makes things worst
        C            G           G1st       D
   It's just an observation that can't be ignored
        C             G         G1st      D     C
   That people should smile more

Bridge 3 (after second chorus)
Doo doo ba doo da doo dee dee do.........)
                                         }x4
Em                        C..............)


LAYOUT

Verse one
People should smile more
Im not saying theres nothing to cry for but you've got
Everything laid out for you
Just close your eyes, take a deep breath and start another war

Bridge 1
Keep buying, keep moving, this city, is sitting,
next to me, well laid out, it's gona come, one thing is certain

Chorus (see further up the page)

Verse 2
People should smile more
But the lights are so bright that they blind you, just one more
Meaningless scientific break through
The more we know, the less we care whilst damaged on the way

Bridge 2 (THE SAME MELODY AS BRIDGE 1)
Keep moving, keep buying, this city, is sitting
Next to me, well laid out, it's gona come, one thing is certain

Chorus

Bridge 3  (See further up the page)

Chorus x2

play chorus melody once more without singing.

END


Please post comments and rate!!!
                         Rob S
            
Submit corrections

comments powered by Disqus
↑ Back to top | Newton Faulkner Tabs for People Should Smile More. Lyrics for acoustic guitar and electric guitar. Tablatures and chords are parodies/interpretations of the original songs. You may use it for private study, scholarship, research or language learning purposes only