» » »

Let's Get Together Tabs (ver.1)

Artists:  A B C D E F G H I J K L M N O P Q R S T U V W X Y Z # 

Let's Get Together Tabs (ver.1)

Newton Faulkner
Rating:
0/5 (0 votes)

Hard to play? Try these video lessons and learn fast.
                -----------------------------------------------------------------------------
                   Lets Get Together – Newton Faulkner
-----------------------------------------------------------------------------

Standard Tuning
Capo 3

Intro                                                 Finish on:
e|---------------------------------------------------------------------------|
B|----5-----5-----5---------5----3------------------------------5------------|
G|----5-----5-----5---------0----0----x 9 times-----------------5------------|
D|---------------------------------------------------------------------------|
A|--3-----------3----(0)----------------------------------------3------------|
E|--------5---------------5----3---------------------------------------------|


Pre-Chorus: and there is Just one thing that I wish I said..
e|---------------------------------------------------------------------------|
B|----5----5----5----1----3--------------------------------------------------|
G|----5----5----5----0----0-----x 2 times------------------------------------|
D|---------------------------------------------------------------------------|
A|--3---------3--------------------------------------------------------------|
E|-------5---------1----3----------------------------------------------------|

   And if I was to see you one more Time…
e|---------------------------------------------------------------------------|
B|--8-------6-------5-------3-------------------5----5--5--------------------|
G|----0-------0-------0-------0-----------------5----5--5--------------------|
D|---------------------------------------------------------------------------|
A|--------------------------------------------3---------3--------------------|
E|--8---8---6---6---5---5---3---3------------------5-------------------------|

Chorus -  Strumming Pattern is easy to pick up

       C           G/F          Am          F
e|-----0------------1------------0----------1--------------------------------|
B|-----1------------0------------1----------1--------------------------------|
G|-----0------------0------------2----------2--------------------------------|
D|-----2------------0------------2----------3--------------------------------|
A|-----3------------2------------0----------3--------------------------------|
E|------------------3-----------------------1--------------------------------|


Repeat All


Then Newton does the Aceplello part then repeats the Chorus a couple of times ‘till the End


Finish on
     C
e|---0-----------|
B|---1-----------|
G|---0-----------|
D|---2-----------|
A|---3-----------|
E|---------------|

That’s all Folks =]

Enjoy
            
Hard to play? Try these video lessons and learn fast. | Correct




comments powered by Disqus
↑ Back to top | Tablatures and chords are parodies/interpretations of the original songs. You may use it for private study, scholarship, research or language learning purposes only