» » »

Gone In The Morning Tabs (ver.1)

Artists:  A B C D E F G H I J K L M N O P Q R S T U V W X Y Z # 

Gone In The Morning Tabs (ver.1)

Newton Faulkner
Rating:
5/5 (4 votes)

Hard to play? Try these video lessons and learn fast.
                 Gone In The Morning

this should be pretty much right but i couldn't be bothered to go back and check it all 
i can't be bothered to write out all the structure and stuff, there's alot of palm 
in parts

all in drop C#

enjoy


D#||-----------------------|-----------------------|-----------------------|
A#||-----------------------|-----------------------|-----------------------|
F#||-----------------------|-----------------------|-----------------------|
C#||-----------------------|-----------------------|-----------------------|
G#||-------5---------5--7--|-------5---------5--7--|-------5---------5--7--|
C#||--0-----------0--------|--0-----------0--------|--0-----------0--------|

-------------------|-----------------------|-----------------------|
-------------------|-----------------------|-----------------------|
-------------------|-----------------------|-----------------------|
-------------------|-----------------------|-----------------------|
-------------------|-------5---------5--7--|-------5---------5--7--|
--0----------------|--0-----------0--------|--0-----------0--------|

-----------------------|-----------------------|-----------------------|
-----------------------|-----------------------|-----------------------|
-----------------------|-----------------------|-----------------------|
-----------------------|-----------------------|-------5---------5--7--|
-------5---------5--7--|-------5---------5--7--|-----------------------|
--0-----------0--------|--0-----------0--------|--5-----------5--------|

-----------------------|-----------------------|-----------------------|
-----------------------|-----------------------|-----------------------|
-----------------------|-----------------------|-----------------------|
-------5---------5--7--|-----------------------|-----------------------|
-----------------------|-------5---------5--7--|-------5---------5--7--|
--5-----------5--------|--0-----------0--------|--0-----------0--------|

---------------------|----------------------|---------------------|
---------------------|----------------------|---------------------|
---------------------|----------------------|---------------------|
---------------------|---------4------2--0--|---------------------|
---------7------5----|----------------------|---------7------5----|
--4------------------|--5-------------------|--4------------------|

-------------------|--------------------------|--------------------------|
-------------------|--------------------------|--------------------------|
-------------------|--7--7--7--7--7--7--7--7--|--7--7--7--7--7--7--7--7--|
--9----------------|--7--7--7--7--7--7--7--7--|--7--7--7--7--7--7--7--7--|
--5----------------|--5--5--5--5--5--5--5--5--|--5--5--5--5--5--5--5--5--|
--5----------------|--------------------------|--------------------------|

--------------------------|--------------------------|
--------------------------|--------------------------|
--7--7--7--7--7--7--7--7--|--7--7--7--7--7--7--7--7--|
--7--7--7--7--7--7--7--7--|--7--7--7--7--7--7--7--7--|
--5--5--5--5--5--5--5--5--|--5--5--5--5--5--5--5--5--|
--5--5--5--5--5--5--5--5--|--5--5--5--5--5--5--5--5--|

--------------------------|--------------------------|
--------------------------|--------------------------|
--7--7--7--7--7--7--7--7--|--7--7--7--7--7--7--7--7--|
--7--7--7--7--7--7--7--7--|--7--7--7--7--7--7--7--7--|
--5--5--5--5--5--5--5--5--|--5--5--5--5--5--5--5--5--|
--------------------------|--------------------------|

--------------------------|--------------------------|-----------------------|
--------------------------|--------------------------|-----------------------|
--7--7--7--7--7--7--7--7--|--7--7--7--7--7--7--7--7--|-----------------------|
--7--7--7--7--7--7--7--7--|--7--7--7--7--7--7--7--7--|-----------------------|
--5--5--5--5--5--5--5--5--|--5--5--5--5--5--5--5--5--|-------5---------5--7--|
--5--5--5--5--5--5--5--5--|--5--5--5--5--5--5--5--5--|--0-----------0--------|

-----------------------|-----------------------|-----------------------|
-----------------------|-----------------------|-----------------------|
-----------------------|-----------------------|-----------------------|
-----------------------|-----------------------|-----------------------|
-------5---------5--7--|-------5---------5--7--|-------5---------5--7--|
--0-----------0--------|--0-----------0--------|--0-----------0--------|

-----------------------|-----------------------|-----------------------|
-----------------------|-----------------------|-----------------------|
-----------------------|-----------------------|-----------------------|
-------5---------5--7--|-------5---------5--7--|-----------------------|
-----------------------|-----------------------|-------5---------5--7--|
--5-----------5--------|--5-----------5--------|--0-----------0--------|

-----------------------|---------------------|----------------------|
-----------------------|---------------------|----------------------|
-----------------------|---------------------|----------------------|
-----------------------|---------------------|---------4------2--0--|
-------5---------5--7--|---------7------5----|----------------------|
--0-----------0--------|--4------------------|--5-------------------|

---------------------|-------------------|--------------------------|
---------------------|-------------------|--------------------------|
---------------------|-------------------|--7--7--7--7--7--7--7--7--|
---------------------|--9----------------|--7--7--7--7--7--7--7--7--|
---------7------5----|--5----------------|--5--5--5--5--5--5--5--5--|
--4------------------|--5----------------|--------------------------|

--------------------------|--------------------------|
--------------------------|--------------------------|
--7--7--7--7--7--7--7--7--|--7--7--7--7--7--7--7--7--|
--7--7--7--7--7--7--7--7--|--7--7--7--7--7--7--7--7--|
--5--5--5--5--5--5--5--5--|--5--5--5--5--5--5--5--5--|
--------------------------|--5--5--5--5--5--5--5--5--|

--------------------------|--------------------------|
--------------------------|--------------------------|
--7--7--7--7--7--7--7--7--|--7--7--7--7--7--7--7--7--|
--7--7--7--7--7--7--7--7--|--7--7--7--7--7--7--7--7--|
--5--5--5--5--5--5--5--5--|--5--5--5--5--5--5--5--5--|
--5--5--5--5--5--5--5--5--|--------------------------|

--------------------------|--------------------------|
--------------------------|--------------------------|
--7--7--7--7--7--7--7--7--|--7--7--7--7--7--7--7--7--|
--7--7--7--7--7--7--7--7--|--7--7--7--7--7--7--7--7--|
--5--5--5--5--5--5--5--5--|--5--5--5--5--5--5--5--5--|
--------------------------|--5--5--5--5--5--5--5--5--|

--------------------------|--------------------------|
--------------------------|--------------------------|
--7--7--7--7--7--7--7--7--|--7--7--7--7--7--7--7--7--|
--7--7--7--7--7--7--7--7--|--7--7--7--7--7--7--7--7--|
--5--5--5--5--5--5--5--5--|--5--5--5--7--7--7--9--9--|
--5--5--5--5--5--5--5--5--|--------------------------|

--------------------------|--------------------------|
--------------------------|--------------------------|
--7--7--7--7--7--7--7--7--|--------------------------|
--7--7--7--7--7--7--7--7--|--4--4--4--5--5--5--7--7--|
--9--9--9--9--9--9--9--9--|--5--5--5--5--5--5--5--5--|
--------------------------|--5--5--5--5--5--5--5--5--|

--------------------------|--------------------------|
--------------------------|--------------------------|
--------------------------|--7--7--7--7--7--7--7--7--|
--7--5--5--5--5--5--5--5--|--7--7--7--7--7--7--7--7--|
--5--5--5--5--5--5--5--5--|--5--5--5--7--7--7--9--9--|
--5--5--5--5--5--5--5--5--|--------------------------|

---------------------------|--------------------------|
---------------------------|--------------------------|
--7--7--7--7--7---7--7--7--|--7--7--7--5--5--5--------|
--7--7--7--7--7---7--7--7--|--5--5--5--5--5--5--9--9--|
--9--9--9--9--10--9--7--5--|--5--5--5--5--5--5--5--5--|
---------------------------|--5--5--5--5--5--5--5--5--|

--------------------------|----------------------------------|
--------------------------|----------------------------------|
--------------------------|----------------------------------|
--9--9--9--9--9--9--9--9--|--11--11--11--11--11--11--11--11--|
--5--5--5--5--5--5--5--5--|--7---7---7---7---7---7---7---7---|
--5--5--5--5--5--5--5--5--|--7---7---7---7---7---7---7---7---|

----------------------------------|---------------------|----------------------|
----------------------------------|---------------------|----------------------|
----------------------------------|---------------------|----------------------|
--11--11--11--11--11--11--11--11--|---------------------|---------4------2--0--|
--7---7---7---7---7---7---7---7---|---------7------5----|----------------------|
--7---7---7---7---7---7---7---7---|--4------------------|--5-------------------|

---------------------|-------------------|--------------------------|
---------------------|-------------------|--------------------------|
---------------------|-------------------|--7--7--7--7--7--7--7--7--|
---------------------|--9----------------|--7--7--7--7--7--7--7--7--|
---------7------5----|--5----------------|--5--5--5--5--5--5--5--5--|
--4------------------|--5----------------|--------------------------|

--------------------------|--------------------------|
--------------------------|--------------------------|
--7--7--7--7--7--7--7--7--|--7--7--7--7--7--7--7--7--|
--7--7--7--7--7--7--7--7--|--7--7--7--7--7--7--7--7--|
--5--5--5--5--5--5--5--5--|--5--5--5--5--5--5--5--5--|
--------------------------|--5--5--5--5--5--5--5--5--|

--------------------------|--------------------------|
--------------------------|--------------------------|
--7--7--7--7--7--7--7--7--|--7--7--7--7--7--7--7--7--|
--7--7--7--7--7--7--7--7--|--7--7--7--7--7--7--7--7--|
--5--5--5--5--5--5--5--5--|--5--5--5--5--5--5--5--5--|
--5--5--5--5--5--5--5--5--|--------------------------|

--------------------------|--------------------------|
--------------------------|--------------------------|
--7--7--7--7--7--7--7--7--|--7--7--7--7--7--7--7--7--|
--7--7--7--7--7--7--7--7--|--7--7--7--7--7--7--7--7--|
--5--5--5--5--5--5--5--5--|--5--5--5--5--5--5--5--5--|
--------------------------|--5--5--5--5--5--5--5--5--|

--------------------------|--5--5--5--5--5--5--5--5--|
--------------------------|--7--7--7--7--7--7--7--7--|
--7--7--7--7--7--7--7--7--|--7--7--7--7--7--7--7--7--|
--7--7--7--7--7--7--7--7--|--7--7--7--7--7--7--7--7--|
--5--5--5--5--5--5--5--5--|--5--5--5--5--5--5--5--5--|
--5--5--5--5--5--5--5--5--|--------------------------|

--5--5--5--5--5--5--5--5--|--5--5--5--5--5--5--5--5--|
--7--7--7--7--7--7--7--7--|--7--7--7--7--7--7--7--7--|
--7--7--7--7--7--7--7--7--|--7--7--7--7--7--7--7--7--|
--7--7--7--7--7--7--7--7--|--7--7--7--7--7--7--7--7--|
--5--5--5--5--5--5--5--5--|--5--5--5--5--5--5--5--5--|
--------------------------|--5--5--5--5--5--5--5--5--|

--5--5--5--5--5--5--5--5--|--5--5--5--5--5--5--5--5--|
--7--7--7--7--7--7--7--7--|--7--7--7--7--7--7--7--7--|
--7--7--7--7--7--7--7--7--|--7--7--7--7--7--7--7--7--|
--7--7--7--7--7--7--7--7--|--7--7--7--7--7--7--7--7--|
--5--5--5--5--5--5--5--5--|--5--5--5--5--5--5--5--5--|
--5--5--5--5--5--5--5--5--|--------------------------|

--5--5--5--5--5--5--5--5--|--5--5--5--5--5--5--5--5--|
--7--7--7--7--7--7--7--7--|--7--7--7--7--7--7--7--7--|
--7--7--7--7--7--7--7--7--|--7--7--7--7--7--7--7--7--|
--7--7--7--7--7--7--7--7--|--7--7--7--7--7--7--7--7--|
--5--5--5--5--5--5--5--5--|--5--5--5--5--5--5--5--5--|
--------------------------|--5--5--5--5--5--5--5--5--|

--5--5--5--5--------------|-------------------||
--7--7--7--7--------------|-------------------||
--7--7--7--7--------------|-------------------||
--7--7--7--7--5--4--5--4--|--0----------------||
--5--5--5--5--5--4--5--4--|--0----------------||
--5--5--5--5--5--4--5--4--|--0----------------||
            
Hard to play? Try these video lessons and learn fast. | Correct




comments powered by Disqus
↑ Back to top | Tablatures and chords are parodies/interpretations of the original songs. You may use it for private study, scholarship, research or language learning purposes only