>
 >
Full Fat

Full Fat Guitar Tabs

Newton Faulkner - Full Fat chords, tabs, tablatures, lyrics

Guitar lessons | Add/correct | Request | Top 50 tabs Artists:  A B C D E F G H I J K L M N O P Q R S T U V W X Y Z 0-9

Full Fat Guitar Tabs – Newton Faulkner

CD, Sheet music, Poster

Do you like Full Fat? Share with your friends now
Tabs
My first tab


Intro

e|-------------------------------------------------------------------------|
B|-------------------------------------------------------------------------|
G|--16--14--14-----14-14---16--14--14--------------------------------------|
D|--14--12--11-------------14--12--11--------------------------------------|
A|-----------------16------------------------------------------------------|
E|---0-------0----------------------0--------------------------------------|

Riff 1
"Its hard to see the light when..." 
e|-------------------------------------------------------------------------|
B|-------------------------------------------------------------------------|
G|--16--14--14-------------------------------------------------------------|
D|--14--12--11-------------------------------------------------------------|x4
A|-------------------------------------------------------------------------|
E|-----------0-------------------------------------------------------------|

Chorus

"Santa Clause is green..."           "You want full fat fill that..."
      Em7                                A7
e|-------------------------------------------------------------------------|
B|----8---8-----------------------------8---8------------------------------|
G|----7---7-----------------------------6---6------------------------------|
D|----9---9-----------------------------5---5------------------------------|
A|--7---7------------------------------------------------------------------|
E|------------------------------------5---5--------------------------------|

*Some weird chords with weird lyrics i haven't figured out

Play 'Riff 1' again during "Don't read directly into the sun..."

Play 'Chorus' again

Finish with chords

e|--10--9--9--10--10--9------------5---------------------------------------|
B|--8---8--8---8---8--8------------8---------------------------------------|
G|--7---7--7---7---7--7---x4-------6---------------------------------------|
D|--9---9--9---9---9--9------------5---------------------------------------|
A|--7---7--7---7---7--7------------7---------------------------------------|
E|---------------------------------5---------------------------------------|

I hope what i tabbed was ok
thanks





Comments


Popular Newton Faulkner tabs & chords
Against The Grain 1 Chords
Dream Catch Me 6 Chords
Longshot Chords
Uncomfortably Slow Chords
All I Got Intro Tabs
So Much Tabs
This Town Tabs
Ageing Superhero Ukulele
Brick By Brick Ukulele
Clouds Ukulele


Song lyrics



↑ Back to top | Tablatures and chords are parodies/interpretations of the original songs. You may use it for private study, scholarship, research or language learning purposes only
© 2014 AZChords.com Contact us | Privacy policy | DMCA | Add/correct tabs | Request tabs | Top 50 tabs