» » »

Face Her Tabs (ver.1)

Artists:  A B C D E F G H I J K L M N O P Q R S T U V W X Y Z # 

Face Her Tabs (ver.1)

Newton Faulkner
Rating:
5/5 (1 vote)

Hard to play? Try these video lessons and learn fast.
                Artist : Newton Faulkner
Album : Hand Built By Robots
Song : Face (Her)
Tuning : B F# E F# G# E
Key :  h = hammer on, / = slide, p = pull-off

I did my best. I took ages over it trying to get it right. Possibly wrong in some 
but hopefully mainly right.
You decide whether its right or wrong.

E ---0----------------------------------------------------------|
B ------3----------------------3/5/3-------0h2------------------|
G ---------0-------------------0-----------0--------------------|
D ------------2----------------2/4/2-------0--------------------|
A ---------------0---------0----------0-------------------------|
E ------------------0-------------------------------------------|

E ---0-------------------------------------------0--------------|
B ------3----------------------3/5/3-------0h2------2---2p0-----|
G ---------0-------------------0-----------0--------------------|
D ------------2----------------2/4/2-------0--------------------|
A ---------------0---------0----------0-------------------------|
E ------------------0-------------------------------------------|

E ---9-----------------------------------------------------------|
B ------10--------------------3/5-------3----2p0h2---------------|
G ----------0-----------------0---------0------------------------|
D -------------10-------------2/4-------0------------------------|
A -----------------0-------0------------0------------------------|
E -------------------0-------------------------------------------|

E ---0----------------------------------------------------------|
B ------3----------------------3/5/3-------0h2------------------|
G ---------0-------------------0-----------0--------------------|
D ------------2----------------2/4/2-------0--------------------|
A ---------------0---------0----------0-------------------------|
E ------------------0-------------------------------------------|
            
Hard to play? Try these video lessons and learn fast. | Correct




comments powered by Disqus
↑ Back to top | Tablatures and chords are parodies/interpretations of the original songs. You may use it for private study, scholarship, research or language learning purposes only