>
 >
Bohemian Rhapsody

Bohemian Rhapsody Guitar Tabs

Newton Faulkner - Bohemian Rhapsody chords, tabs, tablatures, lyrics

Guitar lessons | Add/correct | Request | Top 50 tabs Artists:  A B C D E F G H I J K L M N O P Q R S T U V W X Y Z 0-9

Bohemian Rhapsody Guitar Tabs – Newton Faulkner

CD, Sheet music, Poster

Do you like Bohemian Rhapsody? Share with your friends now
Tabs
Bohemian Rhapsody, as played by Newton Faulkner

Newton plays this with some loose timing, so the best way to follow it would be to check 
out the video. I've put in some lyrics to give you an idea of where abouts you are in 
the song!
If I've but a chord in a section |-2-| it normally means play for a bar.

Notes with a * mean it's a harmonic. "H" under the tab means Newton is hitting the body 
of his guitar with his right hand.


C#:-4-4-4-4--4-----7-7-7-7-7-7----6-6-6-7--6---7-7-7-7-7-7----|
Ab:-4-4-4-4--4-----6-6-7-6-6-6----7-7-7-9--7---7-7-9-7-5-4----|
F#:----------------4-4-4-4-6-4----9-9-9-9--9---7-7-7-7-7-6----|
C#:-----------------------------------------------------------|
Ab:-----------------------------------------------------------|
C#:-----------------------------------------------------------|


C#:-----|-----|----------0---0------0-------0------------0-----|
Ab:--4--|--7--|---------------------------------------2---2----|
F#:--6--|--6--|-----2--4---2------4---4---4---4------------1---|
C#:-----|-----|----4---5---4------------------------2--2----2--|
Ab:--4--|-----|---5-------------2-------2----------------------|
C#:-----|--7--|--0--------------------------------2------------|


C#:-----------------------------------------------------------|
Ab:--8-8-7--6-6-7---8-8-7--6-6-7------------------------------|
F#:--7-7-6--5-5-6---7-7-6--5-5-6------------------------------|
C#:--8-8-7--6-6-7---8-8-7--6-6-7------------------------------|
Ab:-----------------------------------------------------------|
C#:-----------------------------------------------------------|


C#:----0-------7-------------------2------------2--------------|
Ab:----7-------7--------0---------------------0----------------|
F#:-------------------2---2------2---2------1------------------|
C#:--7---7---7---7------------------------2--------------------|
Ab:-5------4--------3-------3--2-------------------------------|
C#:-------------------------------------2----------------------|


To me..
C#:---------4----2-----------4---2----------------------------|
Ab:-------4-4------0-------4-4-----0--------------------------|
F#:-----2----------------2------------------------------------|
C#:---2----------------2--------------------------------------|
Ab:-0----------0-----0---------0------------------------------|
C#:-----------------------------------------------------------|

Mama,		just killed..       put a gun..      pulled my..
C#:---------4----2------------6---4----------11---9------0--------0---|
Ab:-------4-4------0------4---4---4----------7----7------0--------0---|
F#:-----2---------------2---2------------7----------------------------|
C#:---2--------------------------------9---9-----------9---9----2---2-|
Ab:-0----------0------------------------------------------------------|
C#:-------------------4---------4----9----------9----9--------2-------|

Mama, 		life had..           but now..
C#:---------4----2-------------6---4----------------------------------|
Ab:-------4-4------0------0----0---0----------------------------------|
F#:-----2-------------------------------4-4-3-------------------------|
C#:---2-----------------4---4-----------4-4-3-7-6---5-4---------------|
Ab:-0----------0------------------------2-2-1-7-6---5-4---------------|
C#:-------------------4----------4---4--------7-6---5-4---------------|


Mama, oo oo oo..             didn't mean   if I'm..   tomorrow        as if nothing really matters
C#:-4--4-4--2--4/5-----0-------0-----2----|---0--0--0-------0--------0------0----|
Ab:-0--0-0---------0---0---0---0-----2----|---0--0--0-------7--------7------0----|
F#:-0--0-0---------0-------0---------4----|---6--7--9-------x------x------4-4----|
C#:-x--x-x---------------------------2----|---7--9--11----7------7---------------|
Ab:-5--5-5--4------2-2---2-2-2---2---2----|---x--x--x---5------4--------2-----1--|
C#:-0--0-0---------------------------2----|---7--9--11---------------------------|


C#:----0---0---0-----0----------4----2-----------4---2---------------|
Ab:---------------------------4-4------0-------4-4-----0-------------|
F#:--4---2---1-----0--------2----------------2-----------------------|
C#:--5---4---3---0h2------2----------------2-------------------------|
Ab:---------------------0----------0-----0---------0-----------------|
C#:------------------------------------------------------------------|

Too late..       my time..    sent shivers..
    1 +  2 + 3 + 4
C#:----------------|-0------|--0----|-0---0-------------------|
Ab:------4 ------4-|-0------|--0----|-0---0-------------------|
F#:-2-2--2-------2-|-2------|--7----|-7---2-------------------|
C#:-2-2----------2-|-4------|--9----|-9---2-------------------|
Ab:-0-0----------0-|-x------|--x----|-x---x-------------------|
C#:----------*-*---|-4------|--9----|-9---2-------------------|

Goodbye everybody..       gotta leave..
    1 +  2 + 3 + 4             1  2  3  4   1 2 3 4
C#:----------------|-0------|--0--0--0----|--------------|
Ab:------4 ------4-|-0------|--0--0--0----|--------------|
F#:-2-2--2-------2-|-2------|--7--7--7----|--------------|
C#:-2-2----------2-|-4------|--9--9--8--7-|-6---5-4------|
Ab:-0-0----------0-|-x------|--x--x--x--7-|-6---5-4------|
C#:----------*-*---|-4------|--9--9--8--7-|-6---5-4------|


Mama, oo oo oo..                    I don't wanna die, sometimes wish...
C#:-4--4-4--2--4/5-----0-------0-----2-------0--0--0-----|
Ab:-0--0-0---------0---0---0---0-----2-------0--0--0-----|
F#:-0--0-0---------0-------0---------4-------6--7--9-----|
C#:-x--x-x---------------------------2-------7--9--11----|
Ab:-5--5-5--4------2-2---2-2-2---2---2-------x--x--x-----|
C#:-0--0-0---------------------------2-------7--9--11----|


    1 2 3 4   1          1   2     3  4    1  2  -  -  3  4
C#:-4---4---|-0--------|-0---0-0-0-0--0--|-0--0--0--0--0--0--|
Ab:-0---0---|-4--------|-0---0-0-0-0--0--|-0--0--0--0--0--0--|
F#:-0---0---|-0--------|-9---9-8-7-6--5--|-0--0--0--0--0--3--|
C#:-x---x---|-x--------|-9---9-8-7-6--5-0|-3--10-10-10-10-3--|
Ab:-5---4---|-2--------|-7---7-6-5-4--3-0|-3--10-10-10-10-1--|
C#:-0---0---|----------|----------------0|-3--10-10-10-10----|


    1 + 2 + 3 + 4 + 1 + 2 + 3 + 4 +
C#:---7-7-7-7-7-7-7-7-7-7-7-7-7-7-7---------------------------|
Ab:---7-7-7-7-7-7-7-7-7-7-7-7-7-7-7---------------------------|
F#:-2---------------------------------------------------------|
C#:-2---------------------------------------------------------|
Ab:-0---------------------------------------------------------|
C#:-----------------------------------------------------------|

I see a little..		                       Thunderbolts..
    1 + 2 + 3 + 4 + 1  + 2  + 3 + 4 +
C#:-8-7-6-7-8-7-6-7|12-7-12-77667-8-7-|------------------------|
Ab:-8-7-6-7-8-7-6-7|12-7-12-77667-8-7-|------------------------|
F#:----------------|------------------|------------------------|
C#:----------------|------------------|------------------------|
Ab:----------------|------------------|-33332-2--55556-6-------|
C#:----------------|------------------|-33332-2--55556-6-------|

me. Calilayo				   I'm just a poor boy
C#:---------------------------8----------|-8-7-6-7-8-7-6-7------|
Ab:-----------------------------10-------|-8-7-6-7-8-7-6-7------|
F#:--------------------------------8-----|----------------------|
C#:------------------7787532---------10-8|----------------------|
Ab:-7-7-7-7-7-7-7-7----------------------|----------------------|
C#:-7-7-7-7-7-7-7-7--7787532-------------|----------------------|

He's just...  sparing...		        easy come... 	we will not let you go
C#:-0------|-0---0---0-----|--0-0-0-0-|--887-667-88776|---0---0~---------------|
Ab:-0------|-0---0---0-----|----------|--887-667-88776|---0---0----------------|
F#:-7------|-0---0---0---2-|-4-2-1-0--|---------------|---7---7----------------|
C#:-7------|-5---4---2---2-|-5-4-3-2--|---------------|-7-7-7-7------7777-77---|
Ab:-5------|-5---4---2---0-|----------|---------------|-7-5-7-5------9791097---|
C#:-0------|-5---4---2-----|----------|---------------|-7---7--------7777-77---|



C#:----0----------------0---------------------------------------------|
Ab:----0----------------0---------------------------------------------|
F#:----7----------------7---------------------------------------------|
C#:--7-7-7-777-77-----7-7-7--777-77-x-777-77-x-777-7777-7-----7-------|
Ab:--7-5-7-791097-----7-5-7--791097-x-791097-x-7910979109-------8-----|
C#:--7---7-777-77-----7---7--777-77-x-777-77-x-777-7777-7--10-----10--|


C#:-----------------------------------------------------------|
Ab:-----------------------------------------------------------|
F#:------6-5-10---7--7-7-7-7----------------------------------|
C#:--8-7-6-5-10-7-7--7-7-7-7---7-7-9--7-5-4-2-----------------|
Ab:--8-7-4-3-8--7-5--5-5-5-5---9-9-10-9-7-5-0-----------------|
C#:--8-7--------7---------------------------------------------|
     > > > > >  > > | PM   |


C#:-0---0-----7-----7------7---------------------------------------|
Ab:-0---0-----7-----7------7---------------------------------------|
F#:-7---6-----9-----9------9---------------------------------------|
C#:-7-5-6-4---7-----7----4-7---------------------------------------|
Ab:-5-5-4-4---7-----7----4-7---------------------------------------|
C#:---5---4---7-----7----4-7---------------------------------------|


C#:-0-0-0-0-0-0--|---------------|-0------------|-----------------------|
Ab:-0-0-0-0-0-0--|---------------|-0------------|-----------------------|
F#:-7-0-0-0-0-0--|---------------|-7------------|-9---------------------|
C#:-x-4-5-7-9-11-|-0--4-5-7h9r77-|-x-4-5-7-9-11-|-x-6-7-9h11r99---------|
Ab:-5-x-x-x-x-x--|-0--4-5-7----7-|-5-x-x-x-x-x--|-7-6-7-9-----9---------|
C#:-0-4-5-7-9-11-|-0--4-5-7----7-|-0-4-5-7-9-11-|---6-7-9-----9---------|

    1 + 2 + 3 + 4 +  1 + 2 + 3
C#:-0-----------0--|-0-----------------------|-0--------0-|-0----0-0-|
Ab:-0-----------0--|-0-----------------------|-0--------0-|-0----0-0-|
F#:-0-----------0--|-0--------------------5r0|-0--------0-|-0----0-0-|
C#:-7-----------5--|-7-------5h7r7-----------|-7--------5-|-12---5-4-|
Ab:-7-----------5--|-7------------5h7r5-3----|-7--------5-|-12---5-4-|
C#:-7-----------5--|-7-----------------------|-7--------5-|-12---5-4-|
      H   H   H   H

C#:-0----0-----0-----0-----0--0--0--0----------------------------------|
Ab:-0----0-----0-----0-----0--0--0--0----------------------------------|
F#:-0----0-----0-----0-----0--0--0--0----------------------------------|
C#:-2----7-----2-----7-----2--7--2--7----------------------------------|
Ab:-2----7-----2-----7-----2--7--2--7----------------------------------|
C#:-2----7-----2-----7-----2--7--2--7----------------------------------|


C#:-0-0-0-0-0-0--|---------------|-0------------|---------------------|
Ab:-0-0-0-0-0-0--|---------------|-0------------|---------------------|
F#:-7-0-0-0-0-0--|---------------|-7------------|-9-------------------|
C#:-x-4-5-7-9-11-|-0--4-5-7h9r77-|-x-4-5-7-9-11-|-x-6-7-9-9--9--------|
Ab:-5-x-x-x-x-x--|-0--4-5-7----7-|-5-x-x-x-x-x--|-7-6-7-9-9--9--------|
C#:-0-4-5-7-9-11-|-0--4-5-7----7-|-0-4-5-7-9-11-|---6-7-9-9--9--------|


C#:---------------x--------9--11---14----7/9\7---7*--------------|
Ab:---4r2---------x------------------------------7*--------------|
F#:--2------------x------------------------------7*--------------|
C#:-2-------------4/5\4/5--9--11---14----7/9\7---7*--------------|
Ab:2------5/7\5/7------------------------------------------------|
C#:--------------------------------------------------------------|


C#:-------4--7-------4--7r0-----------9-----------------------|
Ab:---------------------------------9-9-----------------------|
F#:-----7----------7--------------7---------------------------|
C#:---7----------7--------------7-----------------------------|
Ab:------------4----------------------------------------------|
C#:-0-------------------------9-------------------------------|


C#:----0----0h2-0--2--4/5-4--11/12-11--9-11/12-12-----12*-----|
Ab:-4--5--4----------------------------------------------12*--|
F#:-2--4--2---------------------------------------------------|
C#:-----------------------------------------------------------|
Ab:-4--5--4-----2--0------5--------9--9-----------------------|
C#:--------------------------------------------9---9----------|


C#:-----------------------------------0-----0-----0-----------|
Ab:----------0------------------------5-----5-----5-----------|
F#:--4-4/6---2------4---2---4---2-----3-----3-----4-----------|
C#:--5-5/7---4------5---4---5---4-----------------5-----------|
Ab:-----------------------------------------------------------|
C#:--5-5/7---4------5---4---5---4-----------------------------|
		      H   H   H   H

C#:-------------------------------------------------5/7\5-5\4-4-|
Ab:-------------4---5----------------4---4----------0-----------|
F#:-------2---4---4---2---------2--4---4----2-----2-------------|
C#:-----4-----5---5---4-------4----5---5----2----2------------4-|
Ab:---5---------------------5-------------------4---------------|
C#:-0-----------------------------------------------------------|


C#:--------7---------7----------------2---------------------|
Ab:----9-9--\10-10\9-9-----9\6------------------------------|
F#:-4/7------------------------4\2--1-----------------------|
C#:------------------9--------------------------------------|
Ab:---------------------------------------------------------|
C#:---------------------------------------------------------|


C#:----2---2------2------------------------------------------|
Ab:--4---2---1---0-------------------------------------------|
F#:--4---4---3-----------------------------------------------|
C#:-------------4-----2--------------------------------------|
Ab:----------------------------------------------------------|
C#:-------------------2--------------------------------------|





Comments


Popular Newton Faulkner tabs & chords
Brick By Brick 2 Chords
Uncomfortably Slow 4 Chords
Write It On Your Skin Chords
All I Got Tabs
Billy Tabs
Longshot Tabs
Orange Skies 1 Tabs
Clouds Ukulele
Dream Catch Me 2 Ukulele
Feels Like Home Ukulele


Song lyrics



↑ Back to top | Tablatures and chords are parodies/interpretations of the original songs. You may use it for private study, scholarship, research or language learning purposes only
© 2014 AZChords.com Contact us | Privacy policy | DMCA | Add/correct tabs | Request tabs | Top 50 tabs