» » »

Been Thinking About It Tabs (ver.2)

Artists:  A B C D E F G H I J K L M N O P Q R S T U V W X Y Z # 

Been Thinking About It Tabs (ver.2)

Newton Faulkner
Rating:
0/5 (0 votes)

Hard to play? Try these video lessons and learn fast.
                Hi first time but I tounght I would help out...

Newton drop tunes to open D, its (D, G, D, G, A, D)

I wont bother with all the internation but these are the notes to play to achive 
the correct chords


D--------------]--------------------|
A--------------]--------------------|     Repeat this using the bottom D as rythmn
G--7---5---4---]-9---2---4----------|        throughout the verse.
D---0---0---0--]---0--0---0---------|
G--------------]--------------------|
D--9---7---5---]-10--4---5----------|

Chorus biT:- 'IF THIS WAS TO END RIGHT NOW....'

D------       D--------|
A------       A--------|
G-2---2 x2    G-4--4---|  x2
D--0---       D--0-----|
G---2--       G---0----|
D-0---0       D-5--5---|

tHIS IS THE BASIC STRUCTURE, HOPE IT HELPS.

FITZY
            
Hard to play? Try these video lessons and learn fast. | Correct




comments powered by Disqus
↑ Back to top | Tablatures and chords are parodies/interpretations of the original songs. You may use it for private study, scholarship, research or language learning purposes only