» » »

Newton Faulkner, Badman Tabs (ver.1)

Artists:  A B C D E F G H I J K L M N O P Q R S T U V W X Y Z # 

Badman Tabs (ver.1)

Newton Faulkner Tabs
 Rating:
4/5 (7 votes)
Badman lessons Tabs too difficult? Try these video lessons and learn fast
                (Intro)
Badman
Newton Faulkner= King
Just a quick one for the intro, the only bit most people want to know anyway:p
Tuning is DGDGAD i think, regularly used on this album so i'm guessing it will be... 

6 D  3 G
5 G  2 A
4 D  1 D

Couple of slightly unusual techniques he uses in the song, the 1st being the precussive 
of the body of the guitar just above the sound hole with
the palm for the bassy rhythm of the song (marked T). Another is the Flamenco technique 
In this case, there is a quick release in a downward
strumming motion of the first, second then third fingers onto muted strings to create 
hollow and scratty fill (marked r). Also, the first note of
 the phrase is hammered on by the fretting hand, not plucked.

Alot of stuff for such a short bar but this is repeated throughout apart from the chorus 
i'm working on.. enjoy!!
                 r r r
     T   h    T  1 2 3  T         T
D----------------------------------------|
A----------------------------------------|
G----------------x-x-x-------------------|
D----------------x-x-x-------------------|
G--------7-------x-x-x-------------------|
D----------0-----x-x-x-----10--10--------|

The short run off at the end is played once every four bars.
                 r r r
     T   h    T  1 2 3  T             h h
D----------------------------------------------|
A----------------------------------------------|
G----------------x-x-x-------------------------|
D----------------x-x-x---------------------3---|
G--------7-------x-x-x-------------------------|
D----------0-----x-x-x-----10--10---0-3-5------|

Legend
T= Precussive strike with heel of palm above sound hole for bassy thump
h= Hammer-on without plucking note
r= Rasgueado
            
Submit corrections

comments powered by Disqus
↑ Back to top | Newton Faulkner Tabs for Badman. Lyrics for acoustic guitar and electric guitar. Tablatures and chords are parodies/interpretations of the original songs. You may use it for private study, scholarship, research or language learning purposes only