>
 >
Ageing Superhero

Ageing Superhero Guitar Tabs

Newton Faulkner - Ageing Superhero chords, tabs, tablatures, lyrics

Guitar lessons | Add/correct | Request | Top 50 tabs Artists:  A B C D E F G H I J K L M N O P Q R S T U V W X Y Z 0-9

Ageing Superhero Guitar Tabs – Newton Faulkner

CD, Sheet music, Poster

Do you like Ageing Superhero? Share with your friends now
ChordsTabsUkulele
                      Newton Faulkner - Ageing Superhero                        


                                                                 Newton Faulkner
Standard Tuning (Capo 8)
Enjoy!



     W                   W                   W                 
E||--0----------------|-------------------|-------------------|
B||--3----------------|--3----------------|-------------------|
G||--0----------------|--0----------------|--0----------------|
D||-------------------|--4----------------|--4----------------|
A||--5----------------|--5----------------|--5----------------|
E||-------------------|-------------------|--3----------------|


  W                   W                   W                   W                 
-------------------|--0----------------|-------------------|-------------------|
-------------------|--3----------------|--3----------------|-------------------|
--L----------------|--0----------------|--0----------------|--0----------------|
--L----------------|-------------------|--4----------------|--4----------------|
--L----------------|--5----------------|--5----------------|--5----------------|
--L----------------|-------------------|-------------------|--3----------------|


  W                     W                   W                 
--------------------||--3----------------|--3----------------|
--------------------||--3----------------|--3----------------|
--L----------------*||--0----------------|--0----------------|
--L----------------*||--2----------------|--0----------------|
--L-----------------||--3----------------|--2----------------|
--L-----------------||-------------------|-------------------|


  W                   W                   W                   W                 
--3----------------|--3----------------|--0----------------|--3----------------|
--3----------------|--3----------------|--1----------------|--3----------------|
--0----------------|--0----------------|--2----------------|--0----------------|
--0----------------|--2----------------|--2----------------|--0----------------|
--2----------------|--2----------------|--0----------------|--2----------------|
--3----------------|--0----------------|-------------------|--3----------------|


  H.            E   E      H        H             Q    Q    E.  S E.  S  
------------------------|--------------------||-------------3---3-3---3-|
------------------------|--------------------||-------------3---3-3---3-|
--2p------------0h------|--------------------||*------------0---0-0---0-|
--------------------2h--|--L--------0--------||*------------0---0-0---0-|
------------------------|--------------------||--------2--------2-2---2-|
------------------------|--------------------||---3-------------3-3---3-|


  Q    Q    E.  S E.  S    Q    Q    E.  S E.  S    Q    Q    Q    Q     
------------3---3-3---3-|------------3---3-3---3-|----------------------|
------------3---3-3---3-|------------3---3-3---3-|--0----0----0----0----|
------------0---0-0---0-|------------0---0-0---0-|--0----0----0----0----|
-------0--------0-0---0-|------------2---2-2---2-|--5----4----2----0----|
------------------------|-------2----2---2-2---2-|----------------------|
--2-------------2-2---2-|--0---------------------|----------------------|


  Q    Q    E.  S E.  S    E.  S E.  S E.  S E.  S      Q    Q    H         
-------3----3---3-3---3-|--3---3-3---3-3---3-3---3--||------------3--------|
--3----3----3---3-3---3-|--3---3-3---3-3---3-3---3--||------------3--------|
--0----0----0---0-0---0-|--0---0-0---0-0---0-0---0-*||------------0--------|
--2-------------2-2---2-|------2-2---2-----2-2---2-*||-------2----L--------|
--3-------------3-3---3-|------3-3---3-----3-3---3--||--3----L----L--------|
------------------------|---------------------------||---------------------|


  Q    Q    H           Q    Q    H           Q    Q    Q.     E   
------------3--------|------------3--------|------------3---------|
------------3--------|------------3--------|------------3---------|
------------0--------|------------0--------|------------0---------|
------------0--------|-------2----L--------|------------0------0--|
-------2----L--------|--3----L----L--------|-------2----L---------|
--3----L----L--------|---------------------|--3----L----L---------|


  Q    Q    Q    Q       W                   W                 
-------3--------------|--3----------------|--0----------------|
-------3--------------|--3----------------|--3----------------|
-------0--------------|--0----------------|--0----------------|
--2---------2----0----|--0----------------|-------------------|
----------------------|--2----------------|--5----------------|
----------------------|--3----------------|-------------------|


  W                   W                   W                   W                 
-------------------|-------------------|-------------------|--0----------------|
--3----------------|-------------------|-------------------|--3----------------|
--0----------------|--0----------------|--L----------------|--0----------------|
--4----------------|--4----------------|--L----------------|-------------------|
--5----------------|--5----------------|--L----------------|--5----------------|
-------------------|--3----------------|--L----------------|-------------------|


  W                   W                   W                   W                 
-------------------|-------------------|-------------------|--3----------------|
--3----------------|-------------------|-------------------|--3----------------|
--0----------------|--0----------------|--L----------------|--0----------------|
--4----------------|--4----------------|--L----------------|--2----------------|
--5----------------|--5----------------|--L----------------|--3----------------|
-------------------|--3----------------|--L----------------|-------------------|


  W                   W                   W                   W                 
--3----------------|--3----------------|--3----------------|--0----------------|
--3----------------|--3----------------|--3----------------|--1----------------|
--0----------------|--0----------------|--0----------------|--2----------------|
--0----------------|--0----------------|--2----------------|--2----------------|
--2----------------|--2----------------|--2----------------|--0----------------|
-------------------|--3----------------|--0----------------|-------------------|


  W                   H.            E   E      H        H         
--3----------------|------------------------|--------------------|
--3----------------|------------------------|--------------------|
--0----------------|--2p------------0h------|--------------------|
--0----------------|--------------------2h--|--L--------0--------|
--2----------------|------------------------|--------------------|
--3----------------|------------------------|--------------------|


    Q    Q    E.  S E.  S    Q    Q    E.  S E.  S    Q    Q    E.  S E.  S  
|-------------3---3-3---3-|------------3---3-3---3-|------------3---3-3---3-|
|-------------3---3-3---3-|------------3---3-3---3-|------------3---3-3---3-|
|*------------0---0-0---0-|------------0---0-0---0-|------------0---0-0---0-|
|*------------0---0-0---0-|-------0--------0-0---0-|------------2---2-2---2-|
|--------2--------2-2---2-|------------------------|-------2----2---2-2---2-|
|---3-------------3-3---3-|--2-------------2-2---2-|--0---------------------|


  Q    Q    Q    Q       Q    Q    E.  S E.  S    E.  S E.  S E.  S E.  S  4x
----------------------|-------3----3---3-3---3-|--3---3-3---3-3---3-3---3--||
--0----0----0----0----|--3----3----3---3-3---3-|--3---3-3---3-3---3-3---3--||
--0----0----0----0----|--0----0----0---0-0---0-|--0---0-0---0-0---0-0---0-*||
--5----4----2----0----|--2-------------2-2---2-|------2-2---2-----2-2---2-*||
----------------------|--3-------------3-3---3-|------3-3---3-----3-3---3--||
----------------------|------------------------|---------------------------||


  W                   W                   W                   W                 
--3----------------|--3----------------|--3----------------|--3----------------|
--3----------------|--3----------------|--3----------------|--3----------------|
--0----------------|--0----------------|--0----------------|--0----------------|
--2----------------|--0----------------|--0----------------|--2----------------|
--3----------------|--2----------------|--2----------------|--2----------------|
-------------------|-------------------|--3----------------|--0----------------|


  W                   W                   H.            E   E    
--0----------------|--3----------------|------------------------|
--1----------------|--3----------------|------------------------|
--2----------------|--0----------------|--2p------------0h------|
--2----------------|--0----------------|--------------------2h--|
--0----------------|--2----------------|------------------------|
-------------------|--3----------------|------------------------|


  H        H             Q    Q    E.  S E.  S    Q    Q    E.  S E.  S  
--------------------||-------------3---3-3---3-|------------3---3-3---3-|
--------------------||-------------3---3-3---3-|------------3---3-3---3-|
--------------------||*------------0---0-0---0-|------------0---0-0---0-|
--L--------0--------||*------------0---0-0---0-|-------0--------0-0---0-|
--------------------||--------2--------2-2---2-|------------------------|
--------------------||---3-------------3-3---3-|--2-------------2-2---2-|


  Q    Q    E.  S E.  S    Q    Q    Q    Q       Q    Q    E.  S E.  S  
------------3---3-3---3-|----------------------|-------3----3---3-3---3-|
------------3---3-3---3-|--0----0----0----0----|--3----3----3---3-3---3-|
------------0---0-0---0-|--0----0----0----0----|--0----0----0---0-0---0-|
------------2---2-2---2-|--5----4----2----0----|--2-------------2-2---2-|
-------2----2---2-2---2-|----------------------|--3-------------3-3---3-|
--0---------------------|----------------------|------------------------|


  E.  S E.  S E.  S E.  S      Q    Q    H           Q    Q    H         
--3---3-3---3-3---3-3---3--||------------3--------|------------3--------|
--3---3-3---3-3---3-3---3--||------------3--------|------------3--------|
--0---0-0---0-0---0-0---0-*||------------0--------|------------0--------|
------2-2---2-----2-2---2-*||-------2----L--------|------------0--------|
------3-3---3-----3-3---3--||--3----L----L--------|-------2----L--------|
---------------------------||---------------------|--3----L----L--------|


  Q    Q    H           Q    Q    H           Q    Q    Q    Q     
------------3--------|------------3--------|----------------------|
------------3--------|------------3--------|--0----0----0----0----|
------------0--------|------------0--------|--0----0----0----0----|
-------2----L--------|------------0--------|--5----4----2----0----|
--3----L----L--------|-------2----L--------|----------------------|
---------------------|--3----L----L--------|----------------------|


  W                  
--3----------------||
--3----------------||
--0----------------||
--0----------------||
--2----------------||
--3----------------||




Duration Legend
---------------
W - whole
H - half
Q - quarter
E - 8th
S - 16th
. - note dotted


Tablature Legend
----------------
L - tied note
h - hammer on
p - pull off





Comments


Popular Newton Faulkner tabs & chords
Brick By Brick 2 Chords
In The Morning Chords
Aging Super Hero Tabs
All I Got Intro 1 Tabs
It Must Be Love Tabs
Lullaby 1 Tabs
People Should Smile More 2 Tabs
So Much Tabs
This Town Tabs
Foundations Ukulele


Song lyrics



↑ Back to top | Tablatures and chords are parodies/interpretations of the original songs. You may use it for private study, scholarship, research or language learning purposes only
© 2014 AZChords.com Contact us | Privacy policy | DMCA | Add/correct tabs | Request tabs | Top 50 tabs