» » »

I Am Free Bass tabs (ver.1)

Artists:  A B C D E F G H I J K L M N O P Q R S T U V W X Y Z # 

I Am Free Bass tabs (ver.1)

Newsboys
Rating:
0/5 (0 votes)

Hard to play? Try these video lessons and learn fast.
                ----------------------------------------------------------------------------
----------------------------------------------------------------------------


This is my first tab so go easy on me. 
It's not gonna have the riffs of the 
studio version but I think it's close 
enough. The numbers at the bottom of 
the tabs are how many times u pluck 
the string on the tab. Sorry its kinda 
dumbproof. Its straight beats all the way through.

Tuning: Standard

Intro
G|-------------------------------------------------------------------------|
D|-------------------------2---------------2-------------------------------|
A|----------0-------4--------------2---------------------------------------|
E|----0---------------------------------------------0----------------------|
    (32x) (32x)   (11x)   (5x)   (11x)    (5x)    (32x)
Verse I
G|-------------------------------------------------------------------------|
D|-------------------------2--------------2--------------------------------|
A|------------0------4------------2----------------------------------------|
E|----0-------------------------------------------0------------------------|
    (32x)   (32x)  (11x)  (5x)  (11x)    (5x)   (32x)
Chorus
G|-------------------------------------------------------------------------|
D|--------------------------2--------------2-------------------------------|
A|-------------0------4------------2---------------------------------------|
E|-----0-------------------------------------------0-----------------------|
     (32x)   (32x)  (11x)  (5x)  (11x)    (5x)   (32x)
Verse II
G|-------------------------------------------------------------------------|
D|---------------------------2--------------2------------------------------|
A|--------------0------4------------2--------------------------------------|
E|------0--------------------------------------------0---or---0------------|
      (32x)   (32x)  (11x)  (5x)  (11x)    (5x)    (32x) (opt. \ after 28x) 
Chorus
G|-------------------------------------------------------------------------|
D|----------------------------2--------------2-----------------------------|
A|--------------0-------4------------2-------------------------------------|
E|------0---------------------------------------------0--------------------|
      (32x)   (32x)   (11x)  (5x)  (11x)    (5x)    (32x)
Bridge
G|-------------------------------------------------------------------------|
D|-------------------------------------------------------------------------|
A|-------------0------------------0----------------------------------------|
E|------0----------------0------------------0------------------------------|
      (16x)  (16x)     (16x)    (16x)     (once and let ring for 2 measures)
Chorus
G|-------------------------------------------------------------------------|
D|----------------------------------2----------------2---------------------|
A|--------------0---------4------------------2-----------------------------|
E|------0--------------------------------------------------0---------------|
      (32x)   (32x)     (11x)      (5x)    (11x)    (5x) (32x)
Outro
G|-------------------------------------------------------------------------|
D|-------------------------------------------------------------------------|
A|-------------0----------------0------------------------------------------|
E|-----0----------------0----------------0---------------------------------|
     (16x)   (16x)    (16x)   (16x)     (once and let ring)

Thats the best i can do right now. I need to do more tabs to get used to the format. 
Do with it what u will. Leave a comment. 
If you have advice please give it. I will gladly accept.
| /  slide up
| \  slide down
| h  hammer-on
| p  pull-off
| ~  vibrato
| +  harmonic
| x  Mute note
===============================================================================
            
Hard to play? Try these video lessons and learn fast. | Correct




comments powered by Disqus
↑ Back to top | Tablatures and chords are parodies/interpretations of the original songs. You may use it for private study, scholarship, research or language learning purposes only