» » »

New Car Smell, Table 4 Two Ver. Tabs (ver.1)

Artists:  A B C D E F G H I J K L M N O P Q R S T U V W X Y Z # 

Table 4 Two Ver. Tabs (ver.1)

New Car Smell Tabs
 Rating:
4/5 (4 votes)
Table 4 Two Ver. lessons Tabs too difficult? Try these video lessons and learn fast
1
                "(3)
standard tuning

intro:
e|---------------------------------------------|1x
B|---------------------------------------------|
G|---------------------------------------------|
D|----9---9---9---9---9---9---9---9------------|
A|--7---7---6---6---0---0---0---0--------------|
E|---------------------------------------------|
p.m -   -   -   -   -   -   -   -

corus:
e|-------|-------------------------------------------------|4x
B|-------|-------------------------------------------------|
G|-xx-xx-|-999-99-99-9-999-99-99-9-666-67-77-7-------------|
D|-xx-xx-|-999-99-99-9-999-99-99-9-666-67-77-7--777-xx-999-|
A|-xx-xx-|-777-77-77-7-666-66-66-6-444-44-44-4--777-xx-999-|
E|-xx-xx-|--------------------------------------555-xx-777-|

solo:
e|---------------------------------------------|2x
B|---------------------------------------------|
G|---------------------------------------------|
D|-----7-h9-9----6-h9-6----4-h6-7----2-h4-4----|
A|--77--------66--------44--------22-----------|
E|---------------------------------------------|

verse:
e|---------------------------------------------|8x
B|---------------------------------------------|
G|------9----9---------------------------------|
D|---99-9-99-9--------7----7-------------------|
A|---77-7-77-7-----77-7-77-7-------------------|
E|-----------------55-5-55-5-------------------|
p.m. --   --       --   --
"            
Submit corrections

comments powered by Disqus
↑ Back to top | New Car Smell Tabs for Table 4 Two Ver.. Lyrics for acoustic guitar and electric guitar. 1 Tablatures and chords are parodies/interpretations of the original songs. You may use it for private study, scholarship, research or language learning purposes only