» » »

New Bomb Turks, Cultural Elite Sign-Up Sheet Bass tabs (ver.1)

Artists:  A B C D E F G H I J K L M N O P Q R S T U V W X Y Z # 

Cultural Elite Sign-Up Sheet Bass tabs (ver.1)

New Bomb Turks Tabs
Rating:
0/5 (0 votes)
Cultural Elite Sign-Up Sheet lessons Tabs too difficult? Try these video lessons and learn fast
                		           h=hammer on


Intro          /Verse 1
G|-------------|(x3)--------------|
D|-------------|------------------|
A|-3--------0>-|-3-3-3--------0>--|
E|---3--3-3----|-------3--3-3-----|

Pre-Chorus
G|-------------------------------------------------------------
D|-------------------------------------------------------------
A|-3-3-3-------------------------5-5-5-------------------------
E|-------3--3-3-5--5-5-5-3h5-5-5-------3--3-3-5--5-5-5-3h5-5-5-

------------------------------------------------|
------------------------------------------------|
-3-3-3-------------------------5-5-5------------|
-------3--3-3-5--5-5-5-3h5-5-5-------3--3-3-5>--|

Chorus 1                     /             Verse 2
G|(x2)-----------------------|----------------|------------------------------|
D|---------------------------|----------------|------------------------------|
A|-----3----------5>---------|-3--3--------0>-|-3-3-3------------------------|
E|-1>----3-3--3-3-----3-4-5>-|------3--3-3----|-------3--3-3-5>--3h5>--3h5>--|

(Pre-Chorus)

Chorus 2                     /                         Verse 3
G|(x4)-----------------------|----------------------------|------------------|
D|---------------------------|----------------------------|------------------|
A|-----3----------5>---------|-3--3-----------------------|-3-3-3--------0>--|
E|-1>----3-3--3-3-----3-4-5>-|------3--3-3-5>--3h5>--3h5>-|-------3--3-3-----|

Pre-Chorus 3
G|---------------------------------------------------------------------|
D|---------------------------------------------------------------------|
A|-3-3-3------------5-5-5------------3-3-3------------5-5-5------------|
E|-------3--3-3-5>--------3--3-3-5>--------3--3-3-5>--------3--3-3-5>--|

Chorus 3                     /Then do this
G|(x3)-----------------------|------------------------|
D|---------------------------|------------------------|
A|-----3----------5>---------|-----3----------5>------|
E|-1>----3-3--3-3-----3-4-5>-|-1>----3-3--3-3----5-6--|

               Verse 4                          /         "Woohoo part"
G|----------------|(x3)-------------------------|(x2)-----------------------------|
D|----------------|-----------------------------|---------------------------------|
A|----------------|-5-5-5-----------------------|-5-5-5-----------7-7-7-----------|
E|-7>--5h7>--5h7>-|-------5--5-5-7>--5h7>--5h7>-|-------5--5-5-7>-------5--5-5-7>-|

End with this
G|-------------------------------------------------------------------------------|
D|-------------------------------------------------------------------------------|
A|-5-5-5------------------7-7-7------------------5-5-5-----------7-7-7-----------|
E|-------5--5-5-7--7-5h7>-------5--5-5-7--7-5h7>-------5--5-5-7>-------5--5-5-7--|End

Important= Watch timing
Looks long and f**ked up, but NBTurk's songs are hard to tab to get the 
right
timing and tempo.
            
Submit corrections

comments powered by Disqus
↑ Back to top | New Bomb Turks Bass for Cultural Elite Sign-Up Sheet. Lyrics for acoustic guitar and electric guitar. Tablatures and chords are parodies/interpretations of the original songs. You may use it for private study, scholarship, research or language learning purposes only