» » »

Nevershoutnever, Losing It Tabs (ver.1)

Artists:  A B C D E F G H I J K L M N O P Q R S T U V W X Y Z # 

Losing It Tabs (ver.1)

Nevershoutnever Tabs
Rating:
0/5 (0 votes)
Losing It lessons Tabs too difficult? Try these video lessons and learn fast
                -----------------------------------------------------------------------------
-----------------------------------------------------------------------------


CAPO 3!

Tuning:EADGBe

 Intro/Verse 1 and 2 "All we ever did was move around..."
e|------0------------0--------------0--------------0------------------------|
B|------0------------0--------------0--------------0------------------------|
G|------1------------4--------------6--------------2------------------------|
D|------2------------4--------------6--------------2------------------------|
A|------2------------2--------------4--------------0------------------------|
E|------0------------x--------------x--------------x------------------------|


 Pre-Chorus "But my heart was racing..."
e|------0------------0--------------0--------------0------------------------|
B|------0------------0--------------0--------------0------------------------|
G|------6------------2--------------1--------------4------------------------|
D|------6------------2--------------2--------------4------------------------|
A|------4------------0--------------2--------------2------------------------|
E|------x------------x--------------0--------------x------------------------|

 Chorus "I just lost it, and i can't believe it..."
e|------0------------0--------------0--------------0------------------------|
B|------0------------0--------------0--------------0------------------------|
G|------2------------4--------------6--------------4------------------------|
D|------2------------4--------------6--------------4------------------------|
A|------0------------2--------------4--------------2------------------------|
E|------x------------x--------------x--------------x------------------------|


Play Order:
Intro
Verse 1
Pre-Chorus
Chorus
Verse 2
Pre-Chorus
Chorus
Chorus (for the ending part where he's like "ooooooh ooh"
            
Submit corrections

comments powered by Disqus
↑ Back to top | Nevershoutnever Tabs for Losing It. Lyrics for acoustic guitar and electric guitar. Tablatures and chords are parodies/interpretations of the original songs. You may use it for private study, scholarship, research or language learning purposes only