» » »

Nevershoutnever, Damn Dog Tabs (ver.1)

Artists:  A B C D E F G H I J K L M N O P Q R S T U V W X Y Z # 

Damn Dog Tabs (ver.1)

Nevershoutnever Tabs
 Rating:
3.4/5 (5 votes)
Damn Dog lessons Tabs too difficult? Try these video lessons and learn fast
1
                -------------------------------------------------------------------------------
			     Damn Dog - Never Shout Never
-------------------------------------------------------------------------------

Tuning:Standard

This was all done by ear. Sorry If I got anything wrong. Enjoy.


			Opening

e|14--9-9--7--------7/9----------6////7---------6////7-----------------------|
B|------------9--7-------------------------------------7---------------------|
G|---------------------------------------------------------------------------|
D|---------------------------------------------------------------------------|
A|---------------------------------------------------------------------------|
E|---------------------------------------------------------------------------|
			Chours
e|---------------------------------------------------------------------------|
B|-------------------------[-------------------------------------------------|
G|---9---6---6h7p6----4----|2------------------------------------------------|
D|-------------------------[--------------------------------------------------| X3
A|---------------------------------------------------------------------------|
E|---------------------------------------------------------------------------|
		       Small Part
e|---------------------------------------------------------------------------|
B|---------------------------------------------------------------------------|
G|---------------------------------------------------------------------------|
D|-2--2-----4----------------------------------------------------------------|
A|-2--2-----4----------------------------------------------------------------|
E|-1--1-----2----------------------------------------------------------------|
                       Verse2

                       Chorus2

		       Small Part

		       Verse3

		       Solo
e|---------------------------------------------------------------------------|
B|------------------------------------------------9--------------------------|
G|--------/6--4---4-4---6--7--6---4---------------9--------------------------|
D|-9-8-------------------------------6---4---2/7-----------------------------|
A|---------------------------------------------------------------------------|
E|---------------------------------------------------------------------------|

e|---------------------------------------------------------------------------|
B|-------------------------------------------------9-------------------------|
G|-----2h4---6---4----4-4--6--7--6---4-------------9-------------------------|
D|---2h4--------------------------------6---4--2/7---------------------------|
A|-2h4-----------------------------------------------------------------------|
E|---------------------------------------------------------------------------|

e|--12--------9h10p9---------------------------------------------------------|
B|---------------------------------------------------------------------------|
G|---------------------------------------------------------------------------|  X2
D|---------------------------------------------------------------------------|
A|---------------------------------------------------------------------------|
E|---------------------------------------------------------------------------|
                      Small part
************************************

| /   slide up
| \   slide down
| h   hammer-on
| p   pull-off
| ~   vibrato
| +   harmonic
| x   Mute note
| b   Bend
| pb  Pre-bend
| br  Bend release
| pbr Pre-bend release
| brb Bend release bend
            
Submit corrections

comments powered by Disqus
↑ Back to top | Nevershoutnever Tabs for Damn Dog. Lyrics for acoustic guitar and electric guitar. 1 Tablatures and chords are parodies/interpretations of the original songs. You may use it for private study, scholarship, research or language learning purposes only