» » »

Can't Stand It Bass

Artists:  A B C D E F G H I J K L M N O P Q R S T U V W X Y Z # 

Can't Stand It Bass

(ver. 1)
Nevershoutnever Tabs
 Rating:
4/5 (4 votes)
    Can't Stand It lessons Tabs too difficult? Try these video lessons and learn fast
                Here is Never Shout Never's Can't Stand it on Bass if you have any comments let me know 



G-------------------|
D-------------------| repeat 4 times
A------332---55-----|
E---334---556-------|

G--------------------------------|
D--------------------------------|
A--777733335--5-7777----5--55555-|
E------------3------5555---------|

G-------------------|
D-------------------| repeat 4 times
A------332---55-----|
E---334---556-------|

G--------------------------------|
D--------------------------------|
A--777733335--5-7777----5--55555-|
E------------3------5555---------|

G-------------------|
D-------------------| Repeat 4 times
A------332---55-----|
E---334---556-------|

G-----------------------|
D-----------------------| Repeat 2 times
A-----------79(10)---5--|
E-57---35---------------|

Solo do whatever you like

G------------------|
D------------------|Repeat tell End
A------332---55----|
E---334---556------|
            
Submit corrections

↑ Back to top | Nevershoutnever Bass for Can't Stand It. Lyrics for acoustic guitar and electric guitar. Tablatures and chords are parodies/interpretations of the original songs. You may use it for private study, scholarship, research or language learning purposes only