» » »

Bigcitydreams Bass tabs (ver.1)

Artists:  A B C D E F G H I J K L M N O P Q R S T U V W X Y Z # 

Bigcitydreams Bass tabs (ver.1)

Nevershoutnever
Rating:
5/5 (1 vote)

Tabs too difficult? Try these video lessons and learn fast.
                -------------------------------------------------------------------------------
-------------------------------------------------------------------------------


Tuning: Standard 
verse 1
G|-----------------------------|
D|-----------------------------|
A|-----------------------------|
E|8~------5~------1~------3----|

verse 1 continued
G|-----------------------------|
D|-----------------------------|follow the rhythm
A|-----------------------------|
E|8-------5-------1-------3----|

bridge
G|-------------------------------------|
D|-------------------------------------|
A|-------------------------------------|
E|555555558888888811111111333----------|

chorus
G|-----------------------------|
D|-----------------------------|follow the rhythm
A|-----------------------------|x3
E|8-------5-------1-------3----|


verse 2
G|-----------------------------|
D|-----------------------------|
A|-----------------------------|
E|8~------5~------1~------3----|

verse 2 continued
G|-----------------------------|
D|-----------------------------|follow the rhythm
A|-----------------------------|
E|8-------5-------1-------3----|

bridge
G|-------------------------------------|
D|-------------------------------------|
A|-------------------------------------|
E|5555555588888888111111113------------|

chorus
G|-----------------------------|
D|-----------------------------|follow the rhythm
A|-----------------------------|x2
E|8-------5-------1-------3----|


bridge
G|-------------------------------------|
D|-------------------------------------|
A|-------------------------------------|
E|5555555588888888111111113------------|

chorus
G|-----------------------------|
D|-----------------------------|follow the rhythm
A|-----------------------------|
E|8-------5-------1-------3----|

outro
G|-------------------------------------------|
D|-------------------------------------------|
A|-------------------------------------------|
E|8888888-9-10-11--111111-2-3-5--3-4-5-6-7-8-|

| /  slide up
| \  slide down
| h  hammer-on
| p  pull-off
| ~  vibrato
| +  harmonic
| x  Mute note
===============================================================================
            
Tabs too difficult? Try these video lessons and learn fast.




comments powered by Disqus
↑ Back to top | Tablatures and chords are parodies/interpretations of the original songs. You may use it for private study, scholarship, research or language learning purposes only