» » »

Nevershoutnever, Bigcitydreams Tabs (ver.1)

Artists:  A B C D E F G H I J K L M N O P Q R S T U V W X Y Z # 

Bigcitydreams Tabs (ver.1)

Nevershoutnever Tabs
 Rating:
4/5 (7 votes)
Bigcitydreams lessons Tabs too difficult? Try these video lessons and learn fast
                Artist - Nevershoutnever!
Album  - Yipee! EP
Song   - Bigcitydreams

Tuning - Standard

if you're going to use this tab to record with. Feel free to message me with questions 
concerns.
give credit where it is due.

I know the bass transcription is a little bit off, if you want it to be perfect (like
rest of this tab) you'll have to work on it yourself. I haven't listened, but I'm pretty
the bass transcription is played throughout the entire song as well. Enjoy!

Chords

    C    Am     F      G     D
e|---0-----0-----1------3-----2-----|
B|---1-----1-----1------3-----3-----|
G|---0-----2-----2------0-----2-----|
D|---2-----2-----3------0-----0-----|
A|---3-----0-----0------2-----0-----|
E|----------------------3-----------|

              C
You say we're both little people and you like it that way
      Am                                                 F
But in time I'm gonna put this body to shame (and grow old)
Wear a suit like my old man

G
Pack up all my things and get my ass out of town


C
We've got it good             Am
Whether you like this town or not
I know it's small but with a big head

                     F
It's bound to get hot
In the summer
But the summer is a bummer

      G
If you can't leave              F
This pathetic excuse for a town

That holds all your memories
C
A lifetime of crushes and your broken dreams
D
To be anywhere but here
G                                    C
But baby anywhere is away from me

                  Am
If you got it all figured out
                     F
Then what is there to shout about
G                                    C
This midwest town is gonna miss you
                  Am
Just go ahead and work it out
               F
But first come on and let it out
G
Scream and shout and tell everybody that your gonna leave


Interlude - The chord progression C, Am, F, and G is played over the following -

e|---------------------------------------------------------1/3----|
B|--------1--0~---1/3--5b--5--3--1--0~---1/3--3b~--3/5-6b---------|
G|----------------------------------------------------------------|
D|----------------------------------------------------------------|
A|-----2b---------------------------------------------------------|
E|---3------------------Tabbed--by--btsgreg-----------------------|

C
In about one year you'll have it all figured out
Am
These big city dreams are what you're about
F
Walking like strangers among these states
G
Only time will tell how long I can wait

C
We've got it good             Am
Whether you like this town or not
I know it's small but with a big head

                     F
It's bound to get hot
In the summer
But the summer is a bummer

G
If you can't leave              F
This pathetic excuse for a town

That holds all your memories
C
A lifetime of crushes and your broken dreams
D
To be anywhere but here
G                                    C
But baby anywhere is away from me

                  Am
If you got it all figured out
                     F
Then what is there to shout about
     G                              C
This midwest town is gonna miss you
                  Am
Just go ahead and work it out
               F
But first come on and let it out
G                                                         F
Scream and shout and tell everybody that your gonna leave

                       C
Me again oh so casually              D    G
Would you take the hit for me or the home team?


Bass interlude - transcribed for guitar
e|---------------------------------------------------------------------|
B|---------------------------------------------------------------------|
G|--------------------------Tabbed--by--btsgreg------------------------|
D|---------------------------------------------------------------------|
A|---------------------------------------------------------------------|
E|--6h8--8888--6h8--10--12--15---5555-5h7--9--11--12-1111--1h3--5--7---|

e-------------|----------------------|    |----------------------|
B|------------|----------------------|    |----------------------|
G|------------|-----Ending One-------| OR |-----Ending Two-------|
D|------------|----------------------|    |----------------------|
A|------------|----------------------|    |----------------------|
E|--12--7777--|--7h8--10--12--15--8--|    |--7--7h8--10--12--8---|


If you got it all figured out
Then what is there to shout about
This midwest town is gonna miss you


Key/Legend -
|b = bend
|h = hammer
|~ = vibrato
|/ = slide up
            
Submit corrections

comments powered by Disqus
↑ Back to top | Nevershoutnever Tabs for Bigcitydreams. Lyrics for acoustic guitar and electric guitar. Tablatures and chords are parodies/interpretations of the original songs. You may use it for private study, scholarship, research or language learning purposes only