» » »

30 Days Tabs (ver.1)

Artists:  A B C D E F G H I J K L M N O P Q R S T U V W X Y Z # 

30 Days Tabs (ver.1)

Nevershoutnever
Rating:
4/5 (7 votes)

Hard to play? Try these video lessons and learn fast.
                (Intro)
30days by nevershoutnever

capo 7

|--2------2-------2-----2-------0-----0-------0-----0-------------|
|----3------3---3---3-----3---3---3-----3---3---3-----3---3-------|
|-------2-----2-------2-----2-------2-----2-------2-----2---------|
|-----------------------------------------------------------------|
|-----------------------------------------------------------------|
|-----------------------------------------------------------------|

|--0-----0-------0-----0-------0-----0-------0------0-------------|
|----3-----3---3---3-----3---3---3-----3---3---3------3---3-------|
|------0-----0-------0-----0-------0-----0--------0-----0---------|
|-----------------------------------------------------------------|
|-----------------------------------------------------------------|
|-----------------------------------------------------------------|

i think this is how it goes :)
this was my first tab i hope i did okay :D
            
Hard to play? Try these video lessons and learn fast. | Correct




comments powered by Disqus
↑ Back to top | Tablatures and chords are parodies/interpretations of the original songs. You may use it for private study, scholarship, research or language learning purposes only