>
 >
Love From Below

Love From Below Chords

Neva Dinova - Love From Below chords, tabs, tablatures, lyrics

Guitar lessons | Add/correct | Request | Top 50 tabs Artists:  A B C D E F G H I J K L M N O P Q R S T U V W X Y Z 0-9

Love From Below Chords – Neva Dinova

CD, Sheet music, Poster

Do you like Love From Below? Share with your friends now
ChordsUkulele
----------------------------------------------------------------------------
----------------------------------------------------------------------------



Tuning: Standard


Chords used...

.....G......D......C......Em.....Am...
e|---3------2------0------0------0---|
B|---0------3------1------0------1---|
G|---0------2------0------0------2---|
D|---0------0------2------2------2---|
A|---2------0------3------2------0---|
E|---3-------------0------0------0---|


--------------------------------------------------------------------------


.......G.....D.....C.....
Its so hard, hard, hard,

.......G.....D.....C.....
Its so hard, hard, hard,

.......Em................Am...
Its so hard to love your body,

.........C...........C.......


----------------------------------------------------------------------------


...................G..................Am....
Got my foot on the gas, I'm cruising around,

............C.......................D....
looking for something, something to find,

............G.................Am......
I've got an attitude, I can't shake it,

...............C.....................D.........D......
Think I'm the strongest, think I can make it,


--------------------------------------------------------------------------


.......G.....D.....C.....
Its so hard, hard, hard,

.......G.....D.....C.....
Its so hard, hard, hard,

.......Em................Am...
Its so hard to love your body,

.........C.........C......


----------------------------------------------------------------------------

...............G..................Am....
Got both shoes on, I'm breaking a sweat,

....................C..................D.......
I'm walking through traffic like I'm a prophet,

..................G.......................Am........ .
there's no-one to stop it. As soon as the rain comes,

............C......................D.............D......
I slip on a shadow, I'm sickin' my brain on.


--------------------------------------------------------------------------


.......G.....D.....C.....
Its so hard, hard, hard,

.......G.....D.....C.....
Its so hard, hard, hard,

.......Em................Am...
Its so hard to love your body,

.........C.........C......

[x2]

----------------------------------------------------------------------------

then;

e|-----3---------0--------0-------0-2-2-3---|
B|-----0---------1--------1-------3-3-3-3---|
G|-----0---------0--------2-0-2---2-2-4-2---|
D|-----0---------2-0-2----2-----0-0---------|
A|-----2-0-2---3-3------0-0-----------------|
E|---3-3------------------0-----------------|

e|-----3---------0--------0-------0-2-2-3---3---|
B|-----0---------1--------1-------3-3-3-3---0---|
G|-----0---------0--------2-0-2---2-2-4-2---0---|
D|-----0---------2-0-2----2-----0-0---------0---|
A|-----2-0-2---3-3------0-0-----------------2---|
E|---3-3------------------0-----------------3---|

[END]
----------------------------------------------------------------------------





Comments


Popular Neva Dinova tabs & chords
Dragon Chords
Ive Got A Feeling Chords
Lucifers Lament Chords
On Off Chords
Poison Chords
She Cant Change Chords
Tin Man Chords
A Man And His Dream Tabs
Tin Man Ukulele
Yellow Datsun Ukulele


Song lyrics



↑ Back to top | Tablatures and chords are parodies/interpretations of the original songs. You may use it for private study, scholarship, research or language learning purposes only
© 2014 AZChords.com Contact us | Privacy policy | DMCA | Add/correct tabs | Request tabs | Top 50 tabs