>
 >
King Of Carrot Flowers 1

King Of Carrot Flowers 1 Guitar Tabs

Neutral Milk Hotel - King Of Carrot Flowers 1 chords, tabs, tablatures, lyrics

Guitar lessons | Add/correct | Request | Top 50 tabs Artists:  A B C D E F G H I J K L M N O P Q R S T U V W X Y Z 0-9

King Of Carrot Flowers 1 Guitar Tabs – Neutral Milk Hotel

CD, Sheet music, Poster

Do you like King Of Carrot Flowers 1? Share with your friends now
ChordsChords v2Chords v3TabsTabs v2Ukulele
Band: Neutral Milk Hotel

This is a tab of the thing that sounds like a synth (I'm not 100% sure what it is 
and the trumpet part for King of Carrot Flowers Pt. 1 by Neutral Milk Hotel. Enjoy!

The synthey thing comes in at 0:46.
e|----1-----------|----0-------1---|----1-----------|----0-------1---|
B|1---------3-1---|1-------3-------|1---------3-1---|1-------3-------|
G|----------------|----------------|----------------|----------------|
D|----------------|----------------|----------------|----------------|
A|----------------|----------------|----------------|----------------|
E|----------------|----------------|----------------|----------------|
 |1 + 2 + 3 + 4 + |1 + 2 + 3 + 4 + |1 + 2 + 3 + 4 + |1 + 2 + 3 + 4 + |

  And this is...                    And from above...
e|----------------|----------------|----------------|----------------|
B|1---------------|1-------3-------|1---------------|1-------3-------|
G|----------------|----------------|----------------|----------------|
D|----------------|----------------|----------------|----------------|
A|----------------|----------------|----------------|----------------|
E|----------------|----------------|----------------|----------------|
 |1 + 2 + 3 + 4 + |1 + 2 + 3 + 4 + |1 + 2 + 3 + 4 + |1 + 2 + 3 + 4 + |

  Into that secret...
e|1---------------|1-------1-------|----1-----------|----0-------1---|
B|1---------------|3-------1-------|1--------3-1----|1-------3-------|
G|----------------|----------------|----------------|----------------|
D|----------------|----------------|3---------------|----------------|
A|----------------|----------------|----------------|----------------|
E|----------------|----------------|----------------|----------------|
 |1 + 2 + 3 + 4 + |1 + 2 + 3 + 4 + |1 + 2 + 3 + 4 + |1 + 2 + 3 + 4 + |

  And your mom...                   And dad would...
e|----------------|----------------|----------------|----------------|
B|1---------------|1-------3-------|1---------------|1-------3-------|
G|----------------|----------------|----------------|----------------|
D|----------------|----------------|----------------|----------------|
A|----------------|----------------|----------------|----------------|
E|----------------|----------------|----------------|----------------|
 |1 + 2 + 3 + 4 + |1 + 2 + 3 + 4 + |1 + 2 + 3 + 4 + |1 + 2 + 3 + 4 + |

  Each one a little...
e|1--------0------|1------(1)------|----1-----------|----0-------1---|
B|1-------(1)-----|3-------1-------|1--------3-1----|1-------3-------|
G|----------------|----------------|----------------|----------------|
D|----------------|----------------|3---------------|----------------|
A|----------------|----------------|----------------|----------------|
E|----------------|----------------|----------------|----------------|
 |1 + 2 + 3 + 4 + |1 + 2 + 3 + 4 + |1 + 2 + 3 + 4 + |1 + 2 + 3 + 4 + |


  (1:37)
e|----1-----------|----0-------1---|----1-----------|----0-------1---|
B|1---------3-1---|1-------3-------|1---------3-1---|1-------3-------|
G|----------------|----------------|----------------|----------------|
D|----------------|----------------|----------------|----------------|
A|----------------|----------------|----------------|----------------|
E|----------------|----------------|----------------|----------------|
 |1 + 2 + 3 + 4 + |1 + 2 + 3 + 4 + |1 + 2 + 3 + 4 + |1 + 2 + 3 + 4 + |

  (1:47)                            (1:52)
e|----1-----------|----0-------1---|----------------|----------------|
B|1---------3-1---|1-------3-------|1---------------|----------------|
G|----------------|----------------|----------------|----------------|
D|----------------|----------------|----------------|----------------|
A|----------------|----------------|----------------|----------------|
E|----------------|----------------|----------------|----------------|
 |1 + 2 + 3 + 4 + |1 + 2 + 3 + 4 + |1 + 2 + 3 + 4 + |1 + 2 + 3 + 4 + |


A trumpet comes in at 1:29.
                                   *                                      *
e|------------12--|13--------------12h13|12----------12/-|13--------------12h13|
B|----10---11-----|---------------------|--------13------|---------------------|
G|12--------------|---------------------|----------------|---------------------|
D|----------------|---------------------|----------------|---------------------|
A|----------------|---------------------|----------------|---------------------|
E|----------------|---------------------|----------------|---------------------|
 |1 + 2 + 3 + 4 + |1 + 2 + 3 + 4 e +  a |1 + 2 + 3 + 4 + |1 + 2 + 3 + 4 e +  a |

* This is 12 and 13 played quickly, as sixteenth notes.

  (1:40)                             *                                      *
e|12----------------|13--------------12h13|12--------------|13--------------12h13|
B|------10-11-10----|---------------------|--------13------|---------------------|
G|--------------12--|---------------------|----------------|---------------------|
D|------------------|---------------------|----------------|---------------------|
A|------------------|---------------------|----------------|---------------------|
E|------------------|---------------------|----------------|---------------------|
 |1 + 2 +  3  + 4 + |1 + 2 + 3 + 4 e +  a |1 + 2 + 3 + 4 + |1 + 2 + 3 + 4 e + a |

 (1:50)
e|12----------------|----------------|
B|------10-11-10----|----------------|
G|--------------12--|10--------------|
D|------------------|----------------|
A|------------------|----------------|
E|------------------|----------------|
 |1 + 2 +  3  + 4 + |1 + 2 + 3 + 4 + |





Comments


Popular Neutral Milk Hotel tabs & chords
Circle Of Friends Chords
Gardenheadleave Me Alone 1 Chords
Glue Chords
Three Peaches Chords
Two Headed Boy Chords
Two-headed Boy Pt 2 Chords
Communist Daughter 2 Tabs
In The Aeroplane Over The Sea Tabs
Rubby Bulbs Ukulele
Sailing Through Ukulele


Song lyrics



↑ Back to top | Tablatures and chords are parodies/interpretations of the original songs. You may use it for private study, scholarship, research or language learning purposes only
© 2014 AZChords.com Contact us | Privacy policy | DMCA | Add/correct tabs | Request tabs | Top 50 tabs