>
 >
King Of Carrot Flowers

King Of Carrot Flowers Guitar Tabs

Neutral Milk Hotel - King Of Carrot Flowers chords, tabs, tablatures, lyrics

Guitar lessons | Add/correct | Request | Top 50 tabs Artists:  A B C D E F G H I J K L M N O P Q R S T U V W X Y Z 0-9

King Of Carrot Flowers Guitar Tabs – Neutral Milk Hotel

CD, Sheet music, Poster

Do you like King Of Carrot Flowers? Share with your friends now
ChordsChords v2Chords v3TabsTabs v2Ukulele
----------------------------------------------------------------------------
           Neutral Milk Hotel - The King of Carrot Flowers Pt. One

                   In the Aeroplane Over the Sea - 1998
----------------------------------------------------------------------------



I find this the easier yet still 100% correct way to play this song, Enjoy :]


tuning: EADGBE (standard) - "Jeff Mangum"

strumming may not be totally right, but that's easy to figure out on your own :]

here we go

Intro: (0:00)
e|-----------------------------------------------------|
B|-----------------------------------------------------|
G|-----------------3------5-5-5--5--5-5--3-3-3--3-3-3--|
D|-3--3--3-3-3-3-3-3-3-3--5-5-5--5--5-5--3-3-3--3-3-3--|
A|-3--3--3-3-3-3-3-1-3-3--3-3-3--3--3-3--1-1-1--1-1-1--|
E|-1--1--1-1-1-1-1---1-1-------------------------------| (x2)



(0:10)
e|---------------------------------------------|
B|---------------------------------------------|
G|------------------5--5--5-5-5-3--3--3-3-3-3--|
D|-3--3--3-3-3-3-3--5--5--5-5-5-3--3--3-3-3-3--|
A|-3--3--3-3-3-3-3--3--3--3-3-3-1--1--1-1-1-1--|
E|-1--1--1-1-1-1-1-----------------------------|

"When you were young you were the king of carrot flowers..."



(0:15)
e|---------------------------------------------|
B|---------------------------------------------|
G|------------------5--5--5-5-5-3--3--3-3-3-3--|
D|-3--3--3-3-3-3-3--5--5--5-5-5-3--3--3-3-3-3--|
A|-3--3--3-3-3-3-3--3--3--3-3-3-1--1--1-1-1-1--|
E|-1--1--1-1-1-1-1-----------------------------|

"And how you built a tower tumbling through the trees."



(0:20)
e|-----------------------------------------------------|
B|-----------------------------------------------------|
G|-5--5--5--5-5-5--5--5-5--3--3--3-3-3-----------------|
D|-5--5--5--5-5-5--5--5-5--3--3--3-3-3--3--3--3-3-3-3--|
A|-3--3--3--3-3-3--3--3-3--1--1--1-1-1--3--3--3-3-3-3--|
E|--------------------------------------1--1--1-1-1-1--|

"In holy rattlesnakes that fell all around your feet."



(0:26)
e|-----------------------------------------------------|
B|-----------------------------------------------------|
G|-----------------3------5-5-5--5--5-5--3-3-3--3-3-3--|
D|-3--3--3-3-3-3-3-3-3-3--5-5-5--5--5-5--3-3-3--3-3-3--|
A|-3--3--3-3-3-3-3-1-3-3--3-3-3--3--3-3--1-1-1--1-1-1--|
E|-1--1--1-1-1-1-1---1-1-------------------------------| 



(0:30)
e|---------------------------------------------|
B|---------------------------------------------|
G|------------------5--5--5-5-5-3--3--3-3-3-3--|
D|-3--3--3-3-3-3-3--5--5--5-5-5-3--3--3-3-3-3--|
A|-3--3--3-3-3-3-3--3--3--3-3-3-1--1--1-1-1-1--|
E|-1--1--1-1-1-1-1-----------------------------|

"And your mom would stick a fork right into daddy's shoulder..."



(0:36)
e|---------------------------------------------|
B|---------------------------------------------|
G|------------------5--5--5-5-5-3--3--3-3-3-3--|
D|-3--3--3-3-3-3-3--5--5--5-5-5-3--3--3-3-3-3--|
A|-3--3--3-3-3-3-3--3--3--3-3-3-1--1--1-1-1-1--|
E|-1--1--1-1-1-1-1-----------------------------|

"And dad would throw the garbage all across the floor..."



(0:41)
e|-----------------------------------------------------|
B|-----------------------------------------------------|
G|-5--5--5--5-5-5--5--5-5--3--3--3-3-3-----------------|
D|-5--5--5--5-5-5--5--5-5--3--3--3-3-3--3--3--3-3-3-3--|
A|-3--3--3--3-3-3--3--3-3--1--1--1-1-1--3--3--3-3-3-3--|
E|--------------------------------------1--1--1-1-1-1--|

"As we would lay and learn what each other's bodies were for."



(0:47 - 0:56)
e|-----------------------------------------------------|
B|-----------------------------------------------------|
G|-----------------3------5-5-5--5--5-5--3-3-3--3-3-3--|
D|-3--3--3-3-3-3-3-3-3-3--5-5-5--5--5-5--3-3-3--3-3-3--|
A|-3--3--3-3-3-3-3-1-3-3--3-3-3--3--3-3--1-1-1--1-1-1--|
E|-1--1--1-1-1-1-1---1-1-------------------------------| (x2)



(0:57)
e|---------------------------------------------|
B|---------------------------------------------|
G|------------------5--5--5-5-5-3--3--3-3-3-3--|
D|-3--3--3-3-3-3-3--5--5--5-5-5-3--3--3-3-3-3--|
A|-3--3--3-3-3-3-3--3--3--3-3-3-1--1--1-1-1-1--|
E|-1--1--1-1-1-1-1-----------------------------|

"And this is the room one afternoon I knew I could love you..."



(1:02)
e|---------------------------------------------|
B|---------------------------------------------|
G|------------------5--5--5-5-5-3--3--3-3-3-3--|
D|-3--3--3-3-3-3-3--5--5--5-5-5-3--3--3-3-3-3--|
A|-3--3--3-3-3-3-3--3--3--3-3-3-1--1--1-1-1-1--|
E|-1--1--1-1-1-1-1-----------------------------|

"And from above you how I sank into your soul..."



(1:07)
e|-----------------------------------------------------|
B|-----------------------------------------------------|
G|-5--5--5--5-5-5--5--5-5--3--3--3-3-3-----------------|
D|-5--5--5--5-5-5--5--5-5--3--3--3-3-3--3--3--3-3-3-3--|
A|-3--3--3--3-3-3--3--3-3--1--1--1-1-1--3--3--3-3-3-3--|
E|--------------------------------------1--1--1-1-1-1--|

"Into that secret place where no one dares to go."



(1:12)
e|-----------------------------------------------------|
B|-----------------------------------------------------|
G|-----------------3------5-5-5--5--5-5--3-3-3--3-3-3--|
D|-3--3--3-3-3-3-3-3-3-3--5-5-5--5--5-5--3-3-3--3-3-3--|
A|-3--3--3-3-3-3-3-1-3-3--3-3-3--3--3-3--1-1-1--1-1-1--|
E|-1--1--1-1-1-1-1---1-1-------------------------------| 



(1:18)
e|---------------------------------------------|
B|---------------------------------------------|
G|------------------5--5--5-5-5-3--3--3-3-3-3--|
D|-3--3--3-3-3-3-3--5--5--5-5-5-3--3--3-3-3-3--|
A|-3--3--3-3-3-3-3--3--3--3-3-3-1--1--1-1-1-1--|
E|-1--1--1-1-1-1-1-----------------------------|

"And your mom would drink until she was no longer speaking..."



(1:23)
e|---------------------------------------------|
B|---------------------------------------------|
G|------------------5--5--5-5-5-3--3--3-3-3-3--|
D|-3--3--3-3-3-3-3--5--5--5-5-5-3--3--3-3-3-3--|
A|-3--3--3-3-3-3-3--3--3--3-3-3-1--1--1-1-1-1--|
E|-1--1--1-1-1-1-1-----------------------------|

"And dad would dream of all the different ways to die..."



(1:28)
e|--------------------------------------------------------------|
B|--------------------------------------------------------------|
G|-5--5--5--5-5-5--5--5-5--3--3--3-3-3--3-3--3-3-3-3-3-3-3-3-3--|
D|-5--5--5--5-5-5--5--5-5--3--3--3-3-3--3-3--3-3-3-3-3-3-3-3-3--|
A|-3--3--3--3-3-3--3--3-3--1--1--1-1-1--1-1--1-1-1-1-1-1-1-1-1--|
E|--------------------------------------------------------------|

"each one a little more than he could dare to..."



(1:33 - end)
e|-----------------------------------------------------|
B|-----------------------------------------------------|
G|-----------------3------5-5-5--5--5-5--3-3-3--3-3-3--|
D|-3--3--3-3-3-3-3-3-3-3--5-5-5--5--5-5--3-3-3--3-3-3--|
A|-3--3--3-3-3-3-3-1-3-3--3-3-3--3--3-3--1-1-1--1-1-1--|
E|-1--1--1-1-1-1-1---1-1-------------------------------| (x4)

(singing) "tryyy-yyyy-yyyyyyyyy..."





That's it.
great song.
easy song.
Jeff Mangum = <3hero





Comments


Popular Neutral Milk Hotel tabs & chords
In The Aeroplane Over The Sea Bass Tabs
A Baby For Pree 1 Chords
Angel Eyes Chords
I Will Bury You In Time Chords
Where You'll Find Me Now Chords
Now Im Going Down Tabs
A Baby For Pree Ukulele
Aeroplane Over The Sea Ukulele
The Fool Ukulele
The King Of Carrot Flowers Part 1 Ukulele


Song lyrics



↑ Back to top | Tablatures and chords are parodies/interpretations of the original songs. You may use it for private study, scholarship, research or language learning purposes only
© 2014 AZChords.com Contact us | Privacy policy | DMCA | Add/correct tabs | Request tabs | Top 50 tabs