>
 >
Holland, 1945

Holland, 1945 Bass Tabs

Neutral Milk Hotel - Holland, 1945 chords, tabs, tablatures, lyrics

Guitar lessons | Add/correct | Request | Top 50 tabs Artists:  A B C D E F G H I J K L M N O P Q R S T U V W X Y Z 0-9

Holland, 1945 Bass Tabs – Neutral Milk Hotel

CD, Sheet music, Poster

Do you like Holland, 1945? Share with your friends now
Bass TabsChordsChords v2
                                Holland 1945                                   


                                                             Neutral Milk Hotel
Bass



      Q     E   Q     E   E   E      Q     E   Q     E   E   E   
G||------------------------------|------------------------------|
D||------------------------------|------------------------------|
A||--15----15--15----15--15--15--|--15----15--15----15--15--15--|
E||------------------------------|------------------------------|


   Q     E   Q     E   E   E      Q     E   Q     E   E   E    
------------------------------|-------------------------------|
------------------------------|-------------------------------|
--15----15--15----15--15--15--|--15----15--15----15--15--15S--|
------------------------------|-------------------------------|


    Q    E  Q    E  E  E     Q    E  Q    E  E  E     Q    E  Q    E  E  E   
|-------------------------|------------------------|------------------------|
|*------------------------|------------------------|--5----5--5----5--5--5--|
|*--3----3--3----3--3--3--|--3----3--3----3--3--3--|------------------------|
|-------------------------|------------------------|------------------------|


  Q    E  Q    E  E  E   4x  Q    E  Q    E  E  E     Q    E  Q    E  E  E   
-------------------------||------------------------|------------------------|
--5----5--5----5--5--5--*||------------------------|------------------------|
------------------------*||--3----3--3----3--3--3--|--3----3--3----3--3--3--|
-------------------------||------------------------|------------------------|


    Q    E  Q    E  E  E     Q    E  Q    E  E  E     Q    E  Q    E  E  E   
|-------------------------|------------------------|------------------------|
|*--5----5--5----5--5--5--|------------------------|------------------------|
|*------------------------|--5----5--5----5--5--5--|--3----3--3----3--3--3--|
|-------------------------|------------------------|------------------------|


  Q    E  Q    E  E  E   4x   Q    E  Q    E  E  E     Q    E  Q    E  E  E   
-------------------------||-------------------------|------------------------|
------------------------*||*------------------------|------------------------|
--5----5--5----5--5--5--*||*--3----3--3----3--3--3--|--3----3--3----3--3--3--|
-------------------------||-------------------------|------------------------|


  Q    E  Q    E  E  E     Q    E  Q    E  E  E   4x  Q    E  Q    E  E  E   
------------------------|-------------------------||------------------------|
--5----5--5----5--5--5--|--5----5--5----5--5--5--*||------------------------|
------------------------|------------------------*||--5----5--5----5--5--5--|
------------------------|-------------------------||------------------------|


  Q    E  Q    E  E  E     Q    E  Q    E  E  E     Q    E  Q    E  E  E   
------------------------|------------------------|------------------------|
------------------------|------------------------|------------------------|
--5----5--5----5--5--5--|--5----5--5----5--5--5--|--5----5--5----5--5--5--|
------------------------|------------------------|------------------------|


    Q    E  Q    E  E  E     Q    E  Q    E  E  E     Q    E  Q    E  E  E   
|-------------------------|------------------------|------------------------|
|*------------------------|------------------------|--5----5--5----5--5--5--|
|*--3----3--3----3--3--3--|--3----3--3----3--3--3--|------------------------|
|-------------------------|------------------------|------------------------|


  Q    E  Q    E  E  E       Q    E  Q    E  E  E     Q    E  Q    E  E  E   
-------------------------||------------------------|------------------------|
--5----5--5----5--5--5--*||------------------------|------------------------|
------------------------*||--3----3--3----3--3--3--|--3----3--3----3--3--3--|
-------------------------||------------------------|------------------------|


    Q    E  Q    E  E  E     Q    E  Q    E  E  E     Q    E  Q    E  E  E   
|-------------------------|------------------------|------------------------|
|*--5----5--5----5--5--5--|------------------------|------------------------|
|*------------------------|--5----5--5----5--5--5--|--3----3--3----3--3--3--|
|-------------------------|------------------------|------------------------|


  Q    E  Q    E  E  E   4x   Q    E  Q    E  E  E     Q    E  Q    E  E  E   
-------------------------||-------------------------|------------------------|
------------------------*||*------------------------|------------------------|
--5----5--5----5--5--5--*||*--3----3--3----3--3--3--|--3----3--3----3--3--3--|
-------------------------||-------------------------|------------------------|


  Q    E  Q    E  E  E     Q    E  Q    E  E  E   4x  Q    E  Q    E  E  E   
------------------------|-------------------------||------------------------|
--5----5--5----5--5--5--|--5----5--5----5--5--5--*||------------------------|
------------------------|------------------------*||--5----5--5----5--5--5--|
------------------------|-------------------------||------------------------|


  Q    E  Q    E  E  E     Q    E  Q    E  E  E       H        Q    Q     
------------------------|------------------------||----------------------|
------------------------|------------------------||*---------------------|
--5----5--5----5--5--5--|--5----5--5----5--5--5--||*---------------------|
------------------------|------------------------||---3--------5----7----|


  Q    E  Q    E  E  E     Q    E  Q    E  E  E     Q    E  Q    E  E  E   
------------------------|------------------------|------------------------|
------------------------|--5----5--5----5--5--5--|--5----5--5----5--5--5--|
--3----3--3----3--3--3--|------------------------|------------------------|
------------------------|------------------------|------------------------|


  H        Q    Q       Q    E  Q    E  E  E     Q    E  Q    E  E  E   
---------------------|------------------------|------------------------|
---------------------|------------------------|--5----5--5----5--5--5--|
---------------------|--3----3--3----3--3--3--|------------------------|
--3--------5----7----|------------------------|------------------------|


  Q    E  Q    E  E  E       Q    E  Q    E  E  E       Q    E  Q    E  E  E   
-------------------------||------------------------||-------------------------|
------------------------*||------------------------||*------------------------|
--5----5--5----5--5--5--*||--5----5--5----5--5--5--||*--3----3--3----3--3--3--|
-------------------------||------------------------||-------------------------|


  Q    E  Q    E  E  E   3x  Q    E  Q    E  E  E     H        Q    Q     
-------------------------||------------------------|---------------------|
--5----5--5----5--5--5--*||------------------------|---------------------|
------------------------*||--5----5--5----5--5--5--|---------------------|
-------------------------||------------------------|--3--------5----7----|


  Q    E  Q    E  E  E     Q    E  Q    E  E  E     Q    E  Q    E  E  E   
------------------------|------------------------|------------------------|
------------------------|--5----5--5----5--5--5--|------------------------|
--3----3--3----3--3--3--|------------------------|--5----5--5----5--5--5--|
------------------------|------------------------|------------------------|


  Q    E  Q    E  E  E     Q    E  Q    E  E  E     Q    E  Q    E  E  E   
------------------------|------------------------|------------------------|
------------------------|--5----5--5----5--5--5--|--5----5--5----5--5--5--|
--5----5--5----5--5--5--|------------------------|------------------------|
------------------------|------------------------|------------------------|


  Q    E  Q    E  E  E     Q    E  Q    E  E  E       Q    E  Q    E  E  E   
------------------------|------------------------||-------------------------|
--5----5--5----5--5--5--|--5----5--5----5--5--5--||*------------------------|
------------------------|------------------------||*--3----3--3----3--3--3--|
------------------------|------------------------||-------------------------|


  Q    E  Q    E  E  E     Q    E  Q    E  E  E     Q    E  Q    E  E  E   5x
------------------------|------------------------|-------------------------||
------------------------|--5----5--5----5--5--5--|--5----5--5----5--5--5--*||
--3----3--3----3--3--3--|------------------------|------------------------*||
------------------------|------------------------|-------------------------||


  W                  
-------------------||
-------------------||
-------------------||
--3----------------||




Duration Legend
---------------
W - whole
H - half
Q - quarter
E - 8th
S - 16th
T - 32nd
X - 64th
. - note dotted
|-n-|  - n-tuplets


Tablature Legend
----------------
L - tied note
x - dead note
g - grace note
(n) - ghost note
> - accentuded note
NH - natural harmonic
AH - artificial harmonic
TH - tapped harmonic
SH - semi harmonic
PH - pitch harmonic
h - hammer on
p - pull off
b - bend
br - bendRelease
pb - preBend
pbr - preBendRelease
brb - bendReleaseBend
\n/ - tremolo bar dip
\n - tremolo bar dive
-/n - tremolo bar Release up
/n\ - tremolo bar inverted dip
/n - tremolo bar return
-\n - tremolo bar Release down
S - shift slide
s - legato slide
/ -  slide into from below or out of upwards
\ -  slide into from above or out of downwards
~ - vibrato
W - wide vibrato
tr - trill
TP - tremolo picking
T - tapping
S - slap
P - pop
< - fade in
^ - brush up
v - brush down





Comments


Popular Neutral Milk Hotel tabs & chords
A Baby For Pree 1 Chords
Angel Eyes Chords
Circle Of Friends Chords
Engine Chords
Ferris Wheel On Fire Chords
Someone Is Waiting Chords
Two-Headed Boy, Pt. 2 1 Chords
King Of Carrot Flowers 1 Tabs
Sweet Marie Tabs
Bucket Ukulele


Song lyrics



↑ Back to top | Tablatures and chords are parodies/interpretations of the original songs. You may use it for private study, scholarship, research or language learning purposes only
© 2014 AZChords.com Contact us | Privacy policy | DMCA | Add/correct tabs | Request tabs | Top 50 tabs