» » »

Jerk Tabs (ver.1)

Artists:  A B C D E F G H I J K L M N O P Q R S T U V W X Y Z # 

Jerk Tabs (ver.1)

Neurotic Outsiders
Rating:
0/5 (0 votes)

Hard to play? Try these video lessons and learn fast.
                Band: Neurotic Outsiders


Intro:
d#|-----------------------|
A#|-----------------------|
F#|---6/7--7-7-7-7-7------|
C#|---6/7--7-7-7-7-7------|x4
G#|---4/5--5-5-5-5-5------|
D#|-----------------------|


Verse:
d#|-----------------------------------------------------|
A#|-----------------------------------------------------|
F#|---2--2-2----3--3-3----------------------------------|
C#|---2--2-2----3--3-3---5--5-5-5-5-5-5-----------------|x4
G#|---0--0-0----1--1-1---5--5-5-5-5-5-5-----------------|
D#|----------------------3--3-3-3-3-3-3-----------------|

   /---------------Palm Mute-----------\
d#|-----------------------------------------------------|
A#|-----------------------------------------------------|
F#|---2--2-2----3--3-3----------------------------------|
C#|---2--2-2----3--3-3---5--5-5-5-5-5-5-----------------|x4
G#|---0--0-0----1--1-1---5--5-5-5-5-5-5-----------------|
D#|----------------------3--3-3-3-3-3-3-----------------|


d#|-----------------------------------------------------|
A#|-----------------------------------------------------|
F#|---2--2-2----3--3-3----------------------------------|
C#|---2--2-2----3--3-3---5--5-5-5-5-5-5-----------------|x4
G#|---0--0-0----1--1-1---5--5-5-5-5-5-5-----------------|
D#|----------------------3--3-3-3-3-3-3-----------------|


d#|-------------------------------------------------------------------|
A#|-------------------------------------------------------------------|
F#|---4--4-4--4-4-4----5--5-5--5-5-5-------------------7--7-7--7-7-7--| 
C#|---4--4-4--4-4-4----5--5-5--5-5-5---5--5-5--5-5-5---7--7-7--7-7-7--|x4 
G#|---2--2-2--2-2-2----3--3-3--3-3-3---5--5-5--5-5-5---5--5-5--5-5-5--| 
D#|------------------------------------3--3-3--3-3-3------------------|

   /---------------Palm Mute-----------\
d#|-----------------------------------------------------|
A#|-----------------------------------------------------|
F#|---2--2-2----3--3-3----------------------------------|
C#|---2--2-2----3--3-3---5--5-5-5-5-5-5-----------------|x4
G#|---0--0-0----1--1-1---5--5-5-5-5-5-5-----------------|
D#|----------------------3--3-3-3-3-3-3-----------------|


d#|-----------------------------------------------------|
A#|-----------------------------------------------------|
F#|---2--2-2----3--3-3----------------------------------|
C#|---2--2-2----3--3-3---5--5-5-5-5-5-5-----------------|x4
G#|---0--0-0----1--1-1---5--5-5-5-5-5-5-----------------|
D#|----------------------3--3-3-3-3-3-3-----------------|


d#|-------------------------------------------------------------------|
A#|-------------------------------------------------------------------|
F#|---4--4-4--4-4-4----5--5-5--5-5-5-------------------7--7-7--7-7-7--| 
C#|---4--4-4--4-4-4----5--5-5--5-5-5---5--5-5--5-5-5---7--7-7--7-7-7--|x4 
G#|---2--2-2--2-2-2----3--3-3--3-3-3---5--5-5--5-5-5---5--5-5--5-5-5--| 
D#|------------------------------------3--3-3--3-3-3------------------|


d#|-----------------------|
A#|-----------------------|
F#|---6/7--7-7-7-7-7------|
C#|---6/7--7-7-7-7-7------|x4
G#|---4/5--5-5-5-5-5------|
D#|-----------------------|


Solo:
d#|------5-5-----5-5--------6-6-----6-6-------8-8-----8-8-----8-8-----8-8--|
A#|------5-5-----5-5--------6-6-----6-6-------8-8-----8-8-----8-8-----8-8--|
F#|---7b------7b-----7---8b------8b-------10b-----10b-----10b-----10b------|
C#|------------------------------------------------------------------------|
G#|------------------------------------------------------------------------|
D#|------------------------------------------------------------------------|


d#|------5-5-----5-5--------6-6-----6-6-------3-3-3--3/5--5-5-5--5-5-5-5-5-5
A#|------5-5-----5-5--------6-6-----6-6-------3-3-3--3/5--5-5-5--5-5-5-5-5-5
F#|---7b------7b-----7---8b------8b-------3/5-------------------------------
C#|-------------------------------------------------------------------------
G#|-------------------------------------------------------------------------
D#|-------------------------------------------------------------------------


d#|------5-5-----5-5--------6-6-----6-6-------8-8-----8-8-------8------8--|
A#|------5-5-----5-5--------6-6-----6-6-------8-8-----8-8---6h8-8--6h8-8--|
F#|---7b------7b-----7---8b------8b-------10b-----10b---------------------|
C#|-----------------------------------------------------------------------|
G#|-----------------------------------------------------------------------|
D#|-----------------------------------------------------------------------|


d#|-------8-------5-5-----5-5--------6-6-----6-6-------------|
A#|---6h8-8-------5-5-----5-5--------6-6-----6-6-------------|
F#|------------7b------7b-----7---8b------8b------4/7~~------|
C#|----------------------------------------------------------|
G#|----------------------------------------------------------|
D#|----------------------------------------------------------|


Verse:
/---------------Palm Mute-----------\
d#|-----------------------------------------------------|
A#|-----------------------------------------------------|
F#|---2--2-2----3--3-3----------------------------------|
C#|---2--2-2----3--3-3---5--5-5-5-5-5-5-----------------|x8
G#|---0--0-0----1--1-1---5--5-5-5-5-5-5-----------------|
D#|----------------------3--3-3-3-3-3-3-----------------|


d#|-----------------------------------------------------|
A#|-----------------------------------------------------|
F#|---2--2-2----3--3-3----------------------------------|
C#|---2--2-2----3--3-3---5--5-5-5-5-5-5-----------------|x4
G#|---0--0-0----1--1-1---5--5-5-5-5-5-5-----------------|
D#|----------------------3--3-3-3-3-3-3-----------------|


d#|-------------------------------------------------------------------|
A#|-------------------------------------------------------------------|
F#|---4--4-4--4-4-4----5--5-5--5-5-5-------------------7--7-7--7-7-7--| 
C#|---4--4-4--4-4-4----5--5-5--5-5-5---5--5-5--5-5-5---7--7-7--7-7-7--|x4 
G#|---2--2-2--2-2-2----3--3-3--3-3-3---5--5-5--5-5-5---5--5-5--5-5-5--| 
D#|------------------------------------3--3-3--3-3-3------------------|


d#|-----------------------|
A#|-----------------------|
F#|---6/7--7-7-7-7-7------|
C#|---6/7--7-7-7-7-7------|x24
G#|---4/5--5-5-5-5-5------|
D#|-----------------------|




d#|---------|
A#|---------|
F#|---------|
C#|---5-----|
G#|---5-----|
D#|---3-----|

END
            
Hard to play? Try these video lessons and learn fast. | Correct




comments powered by Disqus
↑ Back to top | Tablatures and chords are parodies/interpretations of the original songs. You may use it for private study, scholarship, research or language learning purposes only