» » »

So Many People Tabs (ver.1)

Artists:  A B C D E F G H I J K L M N O P Q R S T U V W X Y Z # 

So Many People Tabs (ver.1)

Neurosonic
Rating:
5/5 (1 vote)

Hard to play? Try these video lessons and learn fast.
                By Neurosonic

This song is the best controversial song ever! It absolutely rips on Ashlee Simpson and
rightfully so. It is a ton of fun when you get the riffs down so practice and have rock
out!

Tuning: Standard A# (A# D# C# C# F# A#  low to high)

Intro and Verse

|------------------------------------------------------------------|
|------------------------------------------------------------------|
|------------------------------------------------------------------|
|–2-2—-2-2—-2-2—-2-2—-2-2-2----------------------------------------|
|–2-2—-2-2—-2-2—-2-2—-2-2-2----------------------------------------|
|–0-0—-0-0—-0-0—-0-0—-0-0-0----------------------------------------|
  . .  . .  . .  . .  . . .   Lightly Palm Muted

Pre-Chorus

|------------------------------------------------------------------|
|------------------------------------------------------------------|
|-5/7-7-7---7\5---5-5------5---------------------------------------|
|–5/7–7–7---7\5---5-5------5----5----------------------------------|
|-3/5-5-5---5\3---3-3------3----5----------------------------------|
|–------------------------------3----------------------------------|

Chorus

|------------------------------------------------------------------|
|------------------------------------------------------------------|
|------------------------------------------------------------------|
|-2----------------------------------------------------------------|
|-2------------------/7--7--7p5p0----------------------------------|
|-0--0--3-4-5----0-----------------3-------------------------------|

Bridge

|------------------------------------------------------------------|
|------------------------------------------------------------------|
|------------------------------------------------------------------|
|-4----------------------------------------------------------------|
|-4------------------/9--9--9p7p0----------------------------------|
|-2---0--5-6-7---0-----------------5-------------------------------|


Key

. = Palm Mute
/ = Slide Up
\ = Slide Down
            
Hard to play? Try these video lessons and learn fast. | Correct




comments powered by Disqus
↑ Back to top | Tablatures and chords are parodies/interpretations of the original songs. You may use it for private study, scholarship, research or language learning purposes only