» » »

Neurosis, Crawl Back In Tabs (ver.1)

Artists:  A B C D E F G H I J K L M N O P Q R S T U V W X Y Z # 

Crawl Back In Tabs (ver.1)

Neurosis Tabs
 Rating:
4/5 (6 votes)
Crawl Back In lessons Tabs too difficult? Try these video lessons and learn fast
                Neurosis - Crawl back in
========================


Drop D tuning


Enjoy!



Intro

      H        H        H         8x
E||-------------------------------||
B||-------------------------------||
G||*--8--------9-----------------*||
D||*--7--------7--------7--------*||
A||---------------------7---------||
D||---------------------7---------||



Riff A

      Q     Q     Q     Q     Q     Q        Q     Q     Q     Q     Q     Q     
E||---------------------------------------|--------------------------------------|
B||---------------------------------------|--------------------------------------|
G||*--15----15----15----15----15----15----|--13----13----13----13----13----13----|
D||*--12----12----12----12----12----12----|--12----12----12----12----12----12----|
A||---------------------------------------|--------------------------------------|
D||---------------------------------------|--------------------------------------|


   Q     Q     Q     Q     Q     Q        Q     Q     Q     Q     Q     Q     8x
--------------------------------------|---------------------------------------||
--------------------------------------|---------------------------------------||
--------------------------------------|--------------------------------------*||
--12----12----12----12----12----12----|--14----14----14----14----14----14----*||
--12----12----12----12----12----12----|--12----12----12----12----12----12-----||
--------------------------------------|---------------------------------------||



Riff B

      Q     Q     Q     Q     Q     Q        Q     Q     Q     Q     H         
E||--------------------------------------|------------------------------------|
B||--------------------------------------|------------------------------------|
G||--------------------------------------|------------------------------------|
D||--11----11----13----11----13----11----|--13----14----14----14----14--------|
A||--12----12----12----12----12----12----|--12----12----12----12----12--------|
D||--------------------------------------|------------------------------------|


   Q     Q     Q     Q     Q     Q        Q     Q     Q     Q     Q     Q      
--------------------------------------|--------------------------------------||
--------------------------------------|--------------------------------------||
--------------------------------------|--------------------------------------||
--11----11----13----11----13----11----|--13----14----16----14----13----14----||
--12----12----12----12----12----12----|--12----12----12----12----12----12----||
--------------------------------------|--------------------------------------||


Riff C (clean)

     Q    Q    Q    Q    Q    Q       Q     Q     H         Q    Q      
E||--------------------------------|----------------------------------||
B||--------------------------------|----------------------------------||
G||--------------------------------|----------------------------------||
D||--7----7----7----7----7----5----|--9----10----10--------10----5----||
A||--------------------------------|----------------------------------||
D||--------------------------------|----------------------------------||


Riff D

      Q     Q     Q     Q     Q     Q       W                H         
E||--------------------------------------|----------------------------|
B||--------------------------------------|----------------------------|
G||--10----10----10----10----10----10----|----------------------------|
D||--10----10----10----10----10----10----|--7----------------L--------|
A||---8-----8-----8-----8-----8-----8----|--7----------------L--------|
E||--------------------------------------|--7----------------L--------|


   Q     Q     Q     Q     Q     Q       W                H         
--------------------------------------|----------------------------|
--------------------------------------|----------------------------|
--10----10----10----10----10----10----|----------------------------|
--10----10----10----10----10----10----|--7----------------L--------|
---8-----8-----8-----8-----8-----8----|--7----------------L--------|
--------------------------------------|--7----------------L--------|


   Q     Q     Q     Q     Q     Q       W                H         
--------------------------------------|----------------------------|
--------------------------------------|----------------------------|
--10----10----10----10----10----10----|----------------------------|
--10----10----10----10----10----10----|--7----------------L--------|
---8-----8-----8-----8-----8-----8----|--7----------------L--------|
--------------------------------------|--7----------------L--------|


  Q    Q    Q    Q    Q    Q       Q    Q    Q    Q    Q    Q      
--------------------------------|--------------------------------||
--------------------------------|--------------------------------||
--8----8----8----8----8----8----|--7----7----7----7----7----7----||
--8----8----8----8----8----8----|--7----7----7----7----7----7----||
--6----6----6----6----6----6----|--5----5----5----5----5----5----||
--------------------------------|--------------------------------||



Riff E (Ending)

      Q     Q     Q     Q     Q     Q        Q     Q     Q     Q     Q     Q     
E||--------------------------------------|--------------------------------------|
B||--------------------------------------|--------------------------------------|
G||--10----10----10----10----10----10----|--10----10----10----10----10----10----|
D||--10----10----10----10----10----10----|--10----10----10----10----10----10----|
A||---8-----8-----8-----8-----8-----8----|---8-----8-----8-----8-----8-----8----|
E||--------------------------------------|--------------------------------------|


   Q     Q     Q     Q     Q     Q        Q     Q     Q     Q     Q     Q     
--------------------------------------|--------------------------------------|
--------------------------------------|--------------------------------------|
--10----10----10----10----10----10----|--10----10----10----10----10----10----|
--10----10----10----10----10----10----|--10----10----10----10----10----10----|
---8-----8-----8-----8-----8-----8----|---8-----8-----8-----8-----8-----8----|
--------------------------------------|--------------------------------------|


  W                H          
----------------------------||
----------------------------||
----------------------------||
--7----------------L--------||
--7----------------L--------||
--7----------------L--------||



Song structure:
===============

0:00 - Intro (8x)
0:27 - Riff A (8x)
1:44 - Riff B (2x)
2:12 - Riff A (8x)
3:32 - Riff B (2x)
4:00 - Riff C (12x)
5:20 - Riff D (3x)
6:32 - Riff E (Ending) (1x)
            
Submit corrections

comments powered by Disqus
↑ Back to top | Neurosis Tabs for Crawl Back In. Lyrics for acoustic guitar and electric guitar. Tablatures and chords are parodies/interpretations of the original songs. You may use it for private study, scholarship, research or language learning purposes only