>
 >
A Season In The Sky

A Season In The Sky Guitar Tabs

Neurosis - A Season In The Sky chords, tabs, tablatures, lyrics

Guitar lessons | Add/correct | Request | Top 50 tabs Artists:  A B C D E F G H I J K L M N O P Q R S T U V W X Y Z 0-9

A Season In The Sky Guitar Tabs – Neurosis

CD, Sheet music, Poster

Do you like A Season In The Sky? Share with your friends now
Tabs
-------------------------------------------------------------------------------
-------------------------------------------------------------------------------
 From the Album "The Eye of Every Storm"

 I think it's right, enjoy ;) 
 If you have any questions contact me
-------------------------------------------------------------------------------



Tuning: EADGBE


Intro 0:00
_______________


Guitar 1
_________

e|---------------------------------------------------------------------------|
B|---------------------------------------------------------------------------|
G|------2--------2-------------2---------2-----------------------------------|   x repeat until 4:10 min
D|---------------------------------------------------------------------------|   
A|---0----0-0-0----0--------0----0----0----0---------------------------------|
E|-0----------------------1---------0----------------------------------------|


Guitar 2
________

starts at 0:10 min

e|---------------------------------------------------------------------------|
B|---------------------------------------------------------------------------|
G|--2/4-4-5---0--------------------------------------------------------------|   5x
D|---------------------------------------------------------------------------|
A|---------------------------------------------------------------------------|
E|---------------------------------------------------------------------------|




Verse 1 - 1:17
______________


Guitar 1
_________

still the same

e|---------------------------------------------------------------------------|
B|---------------------------------------------------------------------------|
G|------2--------2-------------2---------2-----------------------------------|
D|---------------------------------------------------------------------------|   
A|---0----0-0-0----0--------0----0----0----0---------------------------------|
E|-0----------------------1---------0----------------------------------------|


Guitar 2
________

starts at 1:22 min 

e|---------------------------------------------------------------------------|
B|---------------------------------------------------------------------------|
G|--4--------7--------2--------0---------------------------------------------|
D|--------------------------------------0--------2---------------------------|
A|--------------------------------------------------------3------2-----0-----|
E|---------------------------------------------------------------------------|

e|---------------------------------------------------------------------------|
B|--6--------5---------------------------------------------------------------|
G|--------------------2--------5--------4--------2-----------------------2---|
D|--------------------------------------------------------3----2-------------|
A|------------------------------------------------------------------0--------|
E|---------------------------------------------------------------------------|

e|---------------------------------------------------------------------------|
B|---------------------------------------------------------5----6----5-------|
G|--0--------4--------5--------4--------2---------------------------------7--|
D|-----------------------------------------------2----0----------------------|
A|---------------------------------------------------------------------------|
E|---------------------------------------------------------------------------|


Verse 2 - 4:10 min
__________________

Guitar 1
________

e|---------------------------------------------------------------------------|
B|---------------------------------------------------------------------------|
G|--2-2/4--4/5-5--5--4-4-2------------2/4/2----------------2-----------------| x2
D|-------------------------3----------------2----------3-2-------------------|
A|---------------------------------------------------------------------------|
E|---------------------------------------------------------------------------|

e|---------------------------------------------------------------------------|
B|---------------------------------------------------------------------------|
G|--2-2/4--4/5--5/7--7/9--9-7--7/5-5--5/7-7-5-4--4/5-5-4---------------------| x2
D|---------------------------------------------------------------------------|
A|---------------------------------------------------------------------------|
E|---------------------------------------------------------------------------|


Guitar 2
________

e|-----------------------------5---------------------------------------------|
B|---------------------5/6/5-------------------------------------------------|
G|--2-2/4--4/5-5--5/4--------------------------------------------------------| x4
D|---------------------------------------------------------------------------|
A|---------------------------------------------------------------------------|
E|---------------------------------------------------------------------------|


Both Guitars
________

e|---------------------------------------------------------------------------|
B|---------------------------------------------------------------------------|
G|--2-2-4-5-7-5-4--5-4-2--2-9-9--2-2-9-9-------------------------------------| x4
D|--2-2-4-5-7-5-4--5-4-2--2-9-9--2-2-9-9-------------------------------------|
A|--0-0-2-3-5-3-2--3-2-0--0-7-7--0-0-7-7-------------------------------------|
E|---------------------------------------------------------------------------|


Guitar 1
________

e|---------------------------------------------------------------------------|
B|---------------------------------------------------------------------------|
G|---------------------------------------------------------------------------| x6
D|--7-7-7-7-9-5-3-3-3-3-3-2--------------------------------------------------|
A|--7-7-7-7-9-5-3-3-3-3-3-2--0-2-3---3-2-0-----------------------------------|
E|--5-5-5-5-7-3-1-1-1-1-1-0--------------------------------------------------|


Guitar 2
________

e|--------------------5------------------------------------------------------|
B|---------------------------------------------------------------------------|
G|--7--5--7--4--5/4--------2-4-5---------------------------------------------| x6
D|------------------7--------------------------------------------------------|
A|---------------------------------------------------------------------------|
E|---------------------------------------------------------------------------|


Both Guitars
________

e|---------------------------------------------------------------------------|
B|---------------------------------------------------------------------------|
G|--2-2-4-5-7-5-4--5-4-2--2-9-9--2-2-9-9-------------------------------------| x4
D|--2-2-4-5-7-5-4--5-4-2--2-9-9--2-2-9-9-------------------------------------|
A|--0-0-2-3-5-3-2--3-2-0--0-7-7--0-0-7-7-------------------------------------|
E|---------------------------------------------------------------------------|


Guitar 1
________

e|---------------------------------------------------------------------------|
B|---------------------------------------------------------------------------|
G|---------------------------------------------------------------------------| x4
D|--7-7-7-7-9-5-3-3-3-3-3-2--------------------------------------------------|
A|--7-7-7-7-9-5-3-3-3-3-3-2--0-2-3---3-2-0-----------------------------------|
E|--5-5-5-5-7-3-1-1-1-1-1-0--------------------------------------------------|


Guitar 2
________

e|--------------------5------------------------------------------------------|
B|---------------------------------------------------------------------------|
G|--7--5--7--4--5/4--------2-4-5---------------------------------------------| x4
D|------------------7--------------------------------------------------------|
A|---------------------------------------------------------------------------|
E|---------------------------------------------------------------------------|


Both Guitars
____________

e|---------------------------------------------------------------------------|
B|---------------------------------------------------------------------------| 
G|--2--0-2-0------0-2-0----2--0-2-0-----0-2-0--------------------------------| x3
D|--2----------2-----------2---------2---------------------------------------|
A|--0----------2-----------0---------2---------------------------------------|
E|-------------0---------------------0---------------------------------------|



End
___

e|--------------------------------------------------------------------------|
B|--------------------------------------------------------------------------|
G|--2-----------------------------------------------------------------------|
D|--2-----------------------------------------------------------------------|
A|--0-----------------------------------------------------------------------|
E|--------------------------------------------------------------------------|

| /  slide up
| \  slide down
| h  hammer-on
| p  pull-off
| ~  vibrato
| +  harmonic
| x  Mute note
===============================================================================





Comments


Popular Neurosis tabs & chords
A Sun That Never Sets Tabs
Away Tabs
Away 1 Tabs
Crawl Back In Tabs
Locust Star Tabs
Shelter Tabs
Shelter 1 Tabs
Stones From The Sky Tabs
The Doorway Tabs
We All Rage In Gold Tabs


Song lyrics



↑ Back to top | Tablatures and chords are parodies/interpretations of the original songs. You may use it for private study, scholarship, research or language learning purposes only
© 2014 AZChords.com Contact us | Privacy policy | DMCA | Add/correct tabs | Request tabs | Top 50 tabs