» » »

Network, Roshambo Tabs (ver.1)

Artists:  A B C D E F G H I J K L M N O P Q R S T U V W X Y Z # 

Roshambo Tabs (ver.1)

Network Tabs
 Rating:
4.6/5 (11 votes)
Roshambo lessons Tabs too difficult? Try these video lessons and learn fast
1
                intro
e--------------------------------------------------------------------|
b--------------------------------------------------------------------|
g------------------------------------4-4-4-4-4-4-4-4-4-4-4-4-4-4-4-4-|
d-5-5-5-5-5-5-5-5-5-5-5-5-5-5-5-5-5--4-4-4-4-4-4-4-4-4-4-4-4-4-4-4-4-|   X2
a-5-5-5-5-5-5-5-5-5-5-5-5-5-5-5-5-5--2-2-2-2-2-2-2-2-2-2-2-2-2-2-2-2-|
e-3-3-3-3-3-3-3-3-3-3-3-3-3-3-3-3-3----------------------------------|

e----------------------------------------------------------------------|
b----------------------------------------------------------------------|
g--------------------------------------4-4-4-4-4-4-4-4-4-4-4-4-4-4-4-4-|
d--5-5-5-5-5-5-5-5-5-5-5-5-5-5-5-5-5---4-4-4-4-4-4-4-4-4-4-4-4-4-4-4-4-|  X4
a--5-5-5-5-5-5-5-5-5-5-5-5-5-5-5-5-5---2-2-2-2-2-2-2-2-2-2-2-2-2-2-2-2-|
e--3-3-3-3-3-3-3-3-3-3-3-3-3-3-3-3-3-----------------------------------|
          " i dont believe in the apocalypse......."

     “ I don’t believe in valentines”   
                                   ^ stop then chorus
Chorus 
e------------------------------------------------------------------------|
b------------------------------------------------------------------------|
g-5-5-5-5-5-5-5-5-5-5-5-5-5-5-5-5----------------------------------------|
d-5-5-5-5-5-5-5-5-5-5-5-5-5-5-5-5--5-5-5-5-5-5-5-5-5-5-5-5-5-5-5-5-------| X3
a-3-3-3-3-3-3-3-3-3-3-3-3-3-3-3-3--5-5-5-5-5-5-5-5-5-5-5-5-5-5-5-5-------|
e----------------------------------3-3-3-3-3-3-3-3-3-3-3-3-3-3-3-3-------|
       “I don’t believe I ask opinion ……….”

On the 4th time 
e-------------------------------------------------------------------------|
b-------------------------------------------------------------------------|
g---------------------4-4-4-4-4-4-4-4----5-5-5-5-5-5-5-5-5-5-5-5-5-5-5-5--|
d--2-2-2-2-2-2-2-2----4-4-4-4-4-4-4-4----5-5-5-5-5-5-5-5-5-5-5-5-5-5-5-5--|
a--2-2-2-2-2-2-2-2----2-2-2-2-2-2-2-2----3-3-3-3-3-3-3-3-3-3-3-3-3-3-3-3--|
e--0-0-0-0-0-0-0-0--------------------------------------------------------|
     “ all I really belive in is you ……”

verse
e----------------------------------------------------------------------|
b----------------------------------------------------------------------|
g--------------------------------------4-4-4-4-4-4-4-4-4-4-4-4-4-4-4-4-|
d--5-5-5-5-5-5-5-5-5-5-5-5-5-5-5-5-5---4-4-4-4-4-4-4-4-4-4-4-4-4-4-4-4-| X4
a--5-5-5-5-5-5-5-5-5-5-5-5-5-5-5-5-5---2-2-2-2-2-2-2-2-2-2-2-2-2-2-2-2-|
e--3-3-3-3-3-3-3-3-3-3-3-3-3-3-3-3-3-----------------------------------|



Chorus 
e-----------------------------------------------------------------------|
b-----------------------------------------------------------------------|
g----5-5-5-5-5-5-5-5-5-5-5-5-5-5-5-5------------------------------------|
d----5-5-5-5-5-5-5-5-5-5-5-5-5-5-5-5--5-5-5-5-5-5-5-5-5-5-5-5-5-5-5-5---|  X3
a----3-3-3-3-3-3-3-3-3-3-3-3-3-3-3-3--5-5-5-5-5-5-5-5-5-5-5-5-5-5-5-5---|
e-------------------------------------3-3-3-3-3-3-3-3-3-3-3-3-3-3-3-3---|
       “I don’t believe I ask opinion ……….”

On the 4th time 
e---------------------------------------------------------------------------|
b---------------------------------------------------------------------------|
g---------------------4-4-4-4-4-4-4-4----5-5-5-5-5-5-5-5-5-5-5-5-5-5-5-5---|
d--2-2-2-2-2-2-2-2----4-4-4-4-4-4-4-4----5-5-5-5-5-5-5-5-5-5-5-5-5-5-5-5----|
a--2-2-2-2-2-2-2-2----2-2-2-2-2-2-2-2----3-3-3-3-3-3-3-3-3-3-3-3-3-3-3-3----|
e--0-0-0-0-0-0-0-0----------------------------------------------------------|
     “ all I really belive in is you ……”

verse
e----------------------------------------------------------------------|
b----------------------------------------------------------------------|
g--------------------------------------4-4-4-4-4-4-4-4-4-4-4-4-4-4-4-4-|
d--5-5-5-5-5-5-5-5-5-5-5-5-5-5-5-5-5---4-4-4-4-4-4-4-4-4-4-4-4-4-4-4-4-|  X2
a--5-5-5-5-5-5-5-5-5-5-5-5-5-5-5-5-5---2-2-2-2-2-2-2-2-2-2-2-2-2-2-2-2-|
e--3-3-3-3-3-3-3-3-3-3-3-3-3-3-3-3-3-----------------------------------|


solo
> means slide

e---------------------------------------------------------------------------|
b---------------------------------------------------------------------------|
g-12---7----4-->>>--11---8----4-->>>--12---7----4-->>>--11---8---4- >>>-12--|
d---------------------------------------------------------------------------|
a---------------------------------------------------------------------------|
e---------------------------------------------------------------------------|

in solo guitar 2 plays verse 2 times


chorus again
e-----------------------------------------------------------------------|
b-----------------------------------------------------------------------|
g--5-5-5-5-5-5-5-5-5-5-5-5-5-5-5-5--------------------------------------|
d--5-5-5-5-5-5-5-5-5-5-5-5-5-5-5-5--5-5-5-5-5-5-5-5-5-5-5-5-5-5-5-5-----| X3
a--3-3-3-3-3-3-3-3-3-3-3-3-3-3-3-3--5-5-5-5-5-5-5-5-5-5-5-5-5-5-5-5-----|
e-----------------------------------3-3-3-3-3-3-3-3-3-3-3-3-3-3-3-3-----|
       “I don’t believe I ask opinion ……….”

On the 4th time 
e--------------------------------------------------------------------------|
b--------------------------------------------------------------------------|
g---------------------4-4-4-4-4-4-4-4----5-5-5-5-5-5-5-5-5-5-5-5-5-5-5-5---|
d--2-2-2-2-2-2-2-2----4-4-4-4-4-4-4-4----5-5-5-5-5-5-5-5-5-5-5-5-5-5-5-5---|
a--2-2-2-2-2-2-2-2----2-2-2-2-2-2-2-2----3-3-3-3-3-3-3-3-3-3-3-3-3-3-3-3---|
e--0-0-0-0-0-0-0-0---------------------------------------------------------|
     “ all I really belive in is you ……”

verse
e----------------------------------------------------------------------|
b----------------------------------------------------------------------|
g--------------------------------------4-4-4-4-4-4-4-4-4-4-4-4-4-4-4-4-|
d--5-5-5-5-5-5-5-5-5-5-5-5-5-5-5-5-5---4-4-4-4-4-4-4-4-4-4-4-4-4-4-4-4-|   X2
a--5-5-5-5-5-5-5-5-5-5-5-5-5-5-5-5-5---2-2-2-2-2-2-2-2-2-2-2-2-2-2-2-2-|
e--3-3-3-3-3-3-3-3-3-3-3-3-3-3-3-3-3------------------------------------|

and that’s is phew!
            
Submit corrections

comments powered by Disqus
↑ Back to top | Network Tabs for Roshambo. Lyrics for acoustic guitar and electric guitar. 1 Tablatures and chords are parodies/interpretations of the original songs. You may use it for private study, scholarship, research or language learning purposes only