» » »

Network, Right Hand-a-rama Tabs (ver.2)

Artists:  A B C D E F G H I J K L M N O P Q R S T U V W X Y Z # 

Right Hand-a-rama Tabs (ver.2)

Network Tabs
 Rating:
4/5 (4 votes)
Right Hand-a-rama lessons Tabs too difficult? Try these video lessons and learn fast
                -------------------------------------------------------------------------------
                             Right Hand-A-Rama - The Network
-------------------------------------------------------------------------------

Tuning: Eb Ab Db Gb Bb eb 

Verses
eb|---------------------------------------------------------------------------|
Bb|---------------------------------------------------------------------------|
Gb|-5-5-8-10--12-12-4-5-------------------------------------------------------|
Db|-5-5-8-10--12-12-4-5-------------------------------------------------------|
Ab|-3-3-6-8---10-10-2-3-------------------------------------------------------|
Eb|---------------------------------------------------------------------------|

Repeat that 8 times for the verses
You will also play that line twice in between the chorus and 2nd verse and at the end of 
the song twice



Chorus
eb|---------------------------------------------------------------------------|
Bb|---------------------------------------------------------------------------|
Gb|-3-3-3-3-------------------------------------------------------------------|
Db|-3-3-3-3-5-5-5-5-----------------------------------------------------------|
Ab|-1-1-1-1-5-5-5-5-----------------------------------------------------------|
Eb|---------3-3-3-3-----------------------------------------------------------|

Repeat that 4 times for the chorus

That's the whole song, its 100% correct, any questions? leave a comment.


Chords:

Verse
C, C, Eb, F, G, G, B, C

Chorus
Bb, Bb, Bb, Bb, G, G, G, G

Lyrics:

I'm taking a ride to the liquor store
I'm looking for a beer and a little bit more
I'm gonna spend all the money she had
On a nude girl in a dirty old magazine
50 cents cheaper than the real thing
Even though it may be a little bit disgusting
Can't call a b**ch and it ain't got no drama
It's called a new sensation called the right hand-a-rama

I don't know why
I don't know why
It sure feels good
Most every time

Alright

Pamela and her five sisters
Are giving me a bad case of nasty blisters
A third degree burn going straight to my head
I guess my pipes are a little bit rusted
Close encounters of the strangest kind
I got the heebee-jeebes for the hundredth time
It didn't work out the way it was planned
All I got now is a beer in my hand

I don't know why
I don't know why
It sure feels good
Most every time

I'll tell you why

Alright

************************************

| /   slide up
| \   slide down
| h   hammer-on
| p   pull-off
| ~   vibrato
| +   harmonic
| x   Mute note
| b   Bend
| pb  Pre-bend
| br  Bend release
| pbr Pre-bend release
| brb Bend release bend

************************************
            
Submit corrections

comments powered by Disqus
↑ Back to top | Network Tabs for Right Hand-a-rama. Lyrics for acoustic guitar and electric guitar. Tablatures and chords are parodies/interpretations of the original songs. You may use it for private study, scholarship, research or language learning purposes only