>
 >
Sorry

Sorry Guitar Tabs

Netral - Sorry chords, tabs, tablatures, lyrics

Guitar lessons | Add/correct | Request | Top 50 tabs Artists:  A B C D E F G H I J K L M N O P Q R S T U V W X Y Z 0-9

Sorry Guitar Tabs – Netral

CD, Sheet music, Poster

Do you like Sorry? Share with your friends now
ChordsTabsUkulele
                  NETRAL - SORRY                                       



     E  E  E  E  E  E  E  E     E  E  E  E  E  E  E  E   
E||--------------------------|--------------------------|
B||--------1-----0-----1-----|--------1-----0-----1-----|
G||-----2-----2-----2-----2--|-----2-----2-----2-----2--|
D||--------------------------|--------------------------|
A||--3-----------------------|--------------------------|
E||--------------------------|--3-----------------------|


  E  E  E  E  E  E  E  E     E  E  E  E  E  E  E  E   
--------------------------|--------------------------|
--------1-----0-----1-----|--------1-----------1-----|
-----2-----2-----2-----2--|-----2-----2-----2-----2--|
--------------------------|--------------------------|
--0-----------------------|--------------------------|
--------------------------|--1-----------3-----------|


  PM PM    PM    PM    PM    PM PM    PM    PM    PM  
  E  E  E  E  E  E  E  E     E  E  E  E  E  E  E  E   
--------------------------|--------------------------|
--------1-----0-----1-----|--------1-----0-----1-----|
-----2-----2-----2-----2--|-----2-----2-----2-----2--|
--------------------------|--------------------------|
--3-----------------------|--------------------------|
--------------------------|--3-----------------------|


  PM PM    PM    PM    PM    PM PM    PM PM PM    PM  
  E  E  E  E  E  E  E  E     E  E  E  E  E  E  E  E   
--------------------------|--------------------------|
--------1-----0-----1-----|--------1-----------1-----|
-----2-----2-----2-----2--|-----2-----2-----2-----2--|
--------------------------|--------------------------|
--0-----------------------|--------------------------|
--------------------------|--1-----------3-----------|


  PM PM    PM    PM    PM    PM PM    PM    PM    PM  
  E  E  E  E  E  E  E  E     E  E  E  E  E  E  E  E   
--------------------------|--------------------------|
--------1-----0-----1-----|--------1-----0-----1-----|
-----2-----2-----2-----2--|-----2-----2-----2-----2--|
--------------------------|--------------------------|
--3-----------------------|--------------------------|
--------------------------|--3-----------------------|


  PM PM    PM    PM    PM    PM PM    PM PM PM    PM                      
  E  E  E  E  E  E  E  E     E  E  E  E  E  E  E  E     W                 
--------------------------|--------------------------|-------------------|
--------1-----0-----1-----|--------1-----------1-----|-------------------|
-----2-----2-----2-----2--|-----2-----2-----2-----2--|--5----------------|
--------------------------|--------------------------|--5----------------|
--0-----------------------|--------------------------|--3----------------|
--------------------------|--1-----------3-----------|-------------------|


  W                   W                   W                 
-------------------|-------------------|-------------------|
-------------------|-------------------|-------------------|
--L----------------|--L----------------|--L----------------|
--L----------------|--L----------------|--L----------------|
--L----------------|--L----------------|--L----------------|
-------------------|-------------------|-------------------|


  E  E  E  E  E  E  E  E     E  E  E  E  E  E  E  E   
--------------------------|--------------------------|
--------------------------|--------------------------|
--5--5--5--5--5--5--5--5--|--------------------------|
--5--5--5--5--5--5--5--5--|--5--5--5--5--5--5--5--5--|
--3--3--3--3--3--3--3--3--|--5--5--5--5--5--5--5--5--|
--------------------------|--3--3--3--3--3--3--3--3--|

C                            G            
sekarang                   cinta bukanlah 
sekarang                     aku 

  E  E  E  E  E  E  E  E     E  E  E  E  E  E  E  E   
--------------------------|--------------------------|
--------------------------|--------------------------|
--------------------------|--------------------------|
--7--7--7--7--7--7--7--7--|--3--3--3--3--5--5--5--5--|
--7--7--7--7--7--7--7--7--|--3--3--3--3--5--5--5--5--|
--5--5--5--5--5--5--5--5--|--1--1--1--1--3--3--3--3--|

Am                               F    G
                           sahabat bagiku
                        berkawan dengan kesepian

  E  E  E  E  E  E  E  E     E  E  E  E  E  E  E  E   
--------------------------|--------------------------|
--------------------------|--------------------------|
--5--5--5--5--5--5--5--5--|--------------------------|
--5--5--5--5--5--5--5--5--|--5--5--5--5--5--5--5--5--|
--3--3--3--3--3--3--3--3--|--5--5--5--5--5--5--5--5--|
--------------------------|--3--3--3--3--3--3--3--3--|

C                            G          
                         sekarang  kita 
                         sekarang kita 

  E  E  E  E  E  E  E  E     E  E  E  E  E  E  E  E   
--------------------------|--------------------------|
--------------------------|--------------------------|
--------------------------|--------------------------|
--7--7--7--7--7--7--7--7--|--3--3--3--3--5--5--5--5--|
--7--7--7--7--7--7--7--7--|--3--3--3--3--5--5--5--5--|
--5--5--5--5--5--5--5--5--|--1--1--1--1--3--3--3--3--|

Am                            F     G
berdua                   telah jadi musuh
berdua                   sependeritaan

  E  E  E  E  E  E  E  E     E  E  E  E  E  E  E  E   
--------------------------|--------------------------|
--------------------------|--------------------------|
--5--5--5--5--5--5--5--5--|--------------------------|
--5--5--5--5--5--5--5--5--|--5--5--5--5--5--5--5--5--|
--3--3--3--3--3--3--3--3--|--5--5--5--5--5--5--5--5--|
--------------------------|--3--3--3--3--3--3--3--3--|

C                              G            
 kata sayang             sepertinya 
belajar                   mengenal 

  E  E  E  E  E  E  E  E     E  E  E  E  E  E  E  E   
--------------------------|--------------------------|
--------------------------|--------------------------|
--------------------------|--------------------------|
--7--7--7--7--7--7--7--7--|--3--3--3--3--5--5--5--5--|
--7--7--7--7--7--7--7--7--|--3--3--3--3--5--5--5--5--|
--5--5--5--5--5--5--5--5--|--1--1--1--1--3--3--3--3--|

Am                          F    G
                         juga   telah hilang
                        cinta  arti kata sayang

  E  E  E  E  E  E  E  E     E  E  E  E  E  E  E  E   
--------------------------|--------------------------|
--------------------------|--------------------------|
--5--5--5--5--5--5--5--5--|--------------------------|
--5--5--5--5--5--5--5--5--|--5--5--5--5--5--5--5--5--|
--3--3--3--3--3--3--3--3--|--5--5--5--5--5--5--5--5--|
--------------------------|--3--3--3--3--3--3--3--3--|


C                              G          
                           mereka pergi 
                           smoga  esok 

  E  E  E  E  E  E  E  E     E  E  E  E  E  E  E  E   
--------------------------|--------------------------|
--------------------------|--------------------------|
--------------------------|--------------------------|
--7--7--7--7--7--7--7--7--|--3--3--3--3--5--5--5--5--|
--7--7--7--7--7--7--7--7--|--3--3--3--3--5--5--5--5--|
--5--5--5--5--5--5--5--5--|--1--1--1--1--3--3--3--3--|

Am                            F    G
angkat kaki                jauh dari sini
lebih baik                 dari hari ini

  E  E  E  E  E  E  E  E     E  E  E  E  E  E  E  E   
--------------------------|--------------------------|
--------1-----0-----1-----|--------1-----0-----1-----|
-----2-----2-----2-----2--|-----2-----2-----2-----2--|
--------------------------|--------------------------|
--3-----------------------|--------------------------|
--------------------------|--3-----------------------|


  E  E  E  E  E  E  E  E     E  E  E  E  E  E  E  E   
--------------------------|--------------------------|
--------1-----0-----1-----|--------1-----------1-----|
-----2-----2-----2-----2--|-----2-----2-----2-----2--|
--------------------------|--------------------------|
--0-----------------------|--------------------------|
--------------------------|--1-----------3-----------|


  E  E  E  E  E  E  E  E     E  E  E  E  E  E  E  E   
--------------------------|--------------------------|
--------1-----0-----1-----|--------1-----0-----1-----|
-----2-----2-----2-----2--|-----2-----2-----2-----2--|
--------------------------|--------------------------|
--3-----------------------|--------------------------|
--------------------------|--3-----------------------|


  E  E  E  E  E  E  E  E     E  E  E  E  E  E  E  E   
--------------------------|--------------------------|
--------1-----0-----1-----|--------1-----------1-----|
-----2-----2-----2-----2--|-----2-----2-----2-----2--|
--------------------------|--------------------------|
--0-----------------------|--------------------------|
--------------------------|--1-----------3-----------|


  E  E  E  E  E  E  E  E     E  E  E  E  E  E  E  E   
--------------------------|--------------------------|
--------------------------|--------------------------|
--5--5--5--5--5--5--5--5--|--4--4--4--4--4--4--4--4--|
--------------------------|--------------------------|
--3--3--3--3--3--3--3--3--|--2--2--2--2--2--2--2--2--|
--------------------------|--------------------------|


C                     
                              Sorry... 


  E  E  E  E  E  E  E  E     E  E  E  E  E  E  E  E   
--------------------------|--------------------------|
--------------------------|--------------------------|
--7--7--7--7--7--7--7--7--|--5--5--5--5--5--5--5--5--|
--------------------------|--------------------------|
--5--5--5--5--5--5--5--5--|--3--3--3--3--3--3--3--3--|
--------------------------|--------------------------|

                           Am
                         kita tak sejalan


  E  E  E  E  E  E  E  E     E  E  E  E  E  E  E  E   
--------------------------|--------------------------|
--------------------------|--------------------------|
--5--5--5--5--5--5--5--5--|--4--4--4--4--4--4--4--4--|
--------------------------|--------------------------|
--3--3--3--3--3--3--3--3--|--2--2--2--2--2--2--2--2--|
--------------------------|--------------------------|

                        

  E  E  E  E  E  E  E  E     E  E  E  E  E  E  E  E   
--------------------------|--------------------------|
--------------------------|--------------------------|
--7--7--7--7--7--7--7--7--|--5--5--5--5--5--5--5--5--|
--------------------------|--------------------------|
--5--5--5--5--5--5--5--5--|--3--3--3--3--3--3--3--3--|
--------------------------|--------------------------|

                            F
  sepertinya kita         tak sepaham


  E  E  E  E  E  E  E  E     E  E  E  E  E  E  E  E   
--------------------------|--------------------------|
--------------------------|--------------------------|
--5--5--5--5--5--5--5--5--|--4--4--4--4--4--4--4--4--|
--------------------------|--------------------------|
--3--3--3--3--3--3--3--3--|--2--2--2--2--2--2--2--2--|
--------------------------|--------------------------|

               
                                        sorry... 


  E  E  E  E  E  E  E  E     E  E  E  E  E  E  E  E     W                 
--------------------------|--------------------------|-------------------|
--------------------------|--------------------------|-------------------|
--7--7--7--7--7--7--7--7--|--5--5--5--5--5--5--5--5--|--5----------------|
--------------------------|--------------------------|--5----------------|
--5--5--5--5--5--5--5--5--|--3--3--3--3--3--3--3--3--|--3----------------|
--------------------------|--------------------------|-------------------|

                              C
                            sorry...

  W                   W                                 
-------------------|-------------------|| 
-------------------|-------------------||
--L----------------|--L----------------||
--L----------------|--L----------------||
--L----------------|--L----------------||
-------------------|-------------------||




(SOLO)

   E  E  E  E  H           Q.     E  E  E  Q     
|-----------------------|-----------------------|
|-----------------------|-----------------------|
|--2--2--2--2-----------|---------4--4--5--5----|
|--2--2--2--2-----------|---------4--4--5--5----|
|--0--0--0--0-----------|---------2--2--3--3----|
|-----------------------|-----------------------|


  E  E  E  E  H           H        E  E  Q       E  E  E  E  H         
-----------------------|----------------------|-----------------------|
-----------------------|----------------------|-----------------------|
-----------------------|----------------------|--2--2--2--2-----------|
--3--3--3--3-----------|--------------5--5----|--2--2--2--2-----------|
--3--3--3--3-----------|--------------5--5----|--0--0--0--0-----------|
--1--1--1--1-----------|--------------3--3----|-----------------------|


  Q.     E  E  E  Q       E  E  E  E  H           H        E  E  Q             
-----------------------|-----------------------|----------------------|-------|
-----------------------|-----------------------|----------------------|-------|
---------4--4--5--5----|-----------------------|----------------------|-------|
---------4--4--5--5----|--3--3--3--3-----------|--------------5--5----|-------|
---------2--2--3--3----|--3--3--3--3-----------|--------------5--5----|-------|
-----------------------|--1--1--1--1-----------|--------------3--3----|-------|





Comments


Popular Netral tabs & chords
Terbang Tenggelam Bass Tabs
Terompet Iblis Bass Tabs
Cinta Gila Chords
Garuda Di Dadaku Chords
Pertempuran Hati Chords
Terbang Tenggelam Chords
Hari Yang Indah Tabs
Haru Biru Tabs
Pertempuran Hati Tabs
Cinta Gila Ukulele


Song lyrics



↑ Back to top | Tablatures and chords are parodies/interpretations of the original songs. You may use it for private study, scholarship, research or language learning purposes only
© 2014 AZChords.com Contact us | Privacy policy | DMCA | Add/correct tabs | Request tabs | Top 50 tabs