» » »

Haru Biru Tabs (ver.1)

Artists:  A B C D E F G H I J K L M N O P Q R S T U V W X Y Z # 

Haru Biru Tabs (ver.1)

Netral
Rating:
0/5 (0 votes)

Hard to play? Try these video lessons and learn fast.
                Song       : Haru Biru
Artist     : Netral



Fig1
e|----------8---------------8---9--|
B|--------------9------------------|
G|--5---6---------------6----------|
D|------------------4--------------|
A|---------------------------------|
E|---------------------------------|

Fig2
e|-----------0-------------0-------------0------------0----|
B|----3---3----3-----3---3---3-----3---3---3----3---3---3--|
G|------2--------------2-------------2------------2--------|
D|--0------------------------------------------------------|
A|-----------------2-------------3------------3------------|
E|---------------------------------------------------------|

Fig3
e|------------------------------------------------------|
B|------------------------------------------------------|
G|------------------------------------------------------|
D|--4--4--2-4-4--4--4--2-4-4--4--4--2-4-4--4--4--2-4-4--|
A|------------------------------------------------------|
E|------------------------------------------------------|

e|-------------------------------------------------------------------------|
B|-------------------------------------------------------------------------|
G|--3--3--1-3-3--3--3--1-3-3----------------------------4--4-4-4-4-4-4-5~--|
D|----------------------------4--4--2-4-4--4--4--2-4-4---------------------|
A|-------------------------------------------------------------------------|
E|-------------------------------------------------------------------------|

Fig4
e|-----------------------------------------------------------------|
B|----------9---5---------------9-----------9---6------------------|
G|--5---6-----------3---5---5-------5---6-----------3---5---5---6--|
D|-----------------------------------------------------------------|
A|-----------------------------------------------------------------|
E|-----------------------------------------------------------------|

Fig5
e|---------------------------|
B|---------------------------|
G|---------------------------|
D|-----------------4---------|
A|--5-------5--2-------2--3--|
E|------5--------------------|

Fig6
e|--(7)----------|
B|------(7)------|
G|----------(7)--|
D|---------------|
A|---------------|
E|---------------|
Note: Tidak ditekan cukup disentuh diatas fret


Fig1
F#5 A#5

F#5 A#5 F#5 B5 C5
F#5 A#5 F#5 B5 C5
Haru biru bagai tenggelan jauh ke dasar kalbu
pandangan ke dalam nikmat anugerah yang Maha Kuasa

Fig2
D5        B5        C5
oh betapa nikmatnya oh begitu indahnya 
D5        B5        C5
bermandi hujan di kala jaya tercebur lumpur sewaktu hancur
D5        B5        C5
oh betapa nikmatnya oh begitu indahnya 
D5        B5        C5
bermandi hujan di kala jaya tercebur lumpur sewaktu hancur

Fig3
F#5 A#5 F#5 B5 C5
Fig3
F#5 A#5 F#5 B5 C5
Aku tak pernah lupa mensyukuri karunia
Mentertawakan luka menangisi gembira

Fig2
D5        B5        C5
oh betapa nikmatnya oh begitu indahnya 
D5        B5        C5
bermandi hujan di kala jaya tercebur lumpur sewaktu hancur
D5        B5        C5
oh betapa nikmatnya oh begitu indahnya 
D5        B5        C5
bermandi hujan di kala jaya tercebur lumpur sewaktu hancur

Fig4
F#5 A#5 F#5 A#5

Fig5
D5 B5 C5

Fig6

Fig5
Fig2 (mutted)
D5 B5 C5

Fig2
D5        B5        C5
oh betapa nikmatnya oh begitu indahnya 
D5        B5        C5
bermandi hujan di kala jaya tercebur lumpur sewaktu hancur
D5        B5        C5
oh betapa nikmatnya oh begitu indahnya 
D5        B5        C5
bermandi hujan di kala jaya tercebur lumpur sewaktu hancur
            
Hard to play? Try these video lessons and learn fast. | Correct




comments powered by Disqus
↑ Back to top | Tablatures and chords are parodies/interpretations of the original songs. You may use it for private study, scholarship, research or language learning purposes only