» » »

Netral, Hari Yang Indah Tabs (ver.1)

Artists:  A B C D E F G H I J K L M N O P Q R S T U V W X Y Z # 

Hari Yang Indah Tabs (ver.1)

Netral Tabs
 Rating:
4.2/5 (5 votes)
Hari Yang Indah lessons Tabs too difficult? Try these video lessons and learn fast
                Song title   : Hari Yang Indah
Artist       : Netral
Tab          : road_green    

Fig1
e|-------------------------------------------------------------------------------------|
B|-----10---7---7--10---7---7--8-8-8-8---7--8-8-8-8---7--------------------------------|
G|-------------------------------------------------------------------------------------|
D|-----7----4---4--7----4---4--5-5-5-5---4--5-5-5-5---5--------------------------------|
A|-------------------------------------------------------------------------------------|
E|-------------------------------------------------------------------------------------|

Fig2
e|-------------------------------------------------------------------------------------|
B|--10-10-10-10-10-10-10-10-10-8-8-8-8-8-8-7-7-----------------------------------------|
G|-------------------------------------------------------------------------------------|
D|--7--7--7--7--7--7--7--7--7--5-5-5-5-5-5-4-4-----------------------------------------|
A|-------------------------------------------------------------------------------------|
E|-------------------------------------------------------------------------------------|

Fig3
e|-------------------------------------------------------------------------------------|
B|-------------------------------------------------------------------------------------|
G|--7-x-7-x-x-x-7-x-7-x-x-x-7-x-7-x-x-x-7-x-7-x-x-x-7-x-7------------------------------|
D|-------------------------------------------------------------------------------------|
A|--5-x-5-x-x-x-5-x-5-x-x-x-5-x-5-x-x-x-5-x-5-x-x-x-5-x-5------------------------------|
E|-------------------------------------------------------------------------------------|

Fig4
e|-------------------------------------------------------------------------------------|
B|---------------------------------------------------------7-5-------------------------|
G|--7-x-7-x-x-x-7-x-7-x-x-x-7-x-7-x-x-x-7-x-7-x-x-x-7-x-7------7-----------------------|
D|-------------------------------------------------------------------------------------|
A|--5-x-5-x-x-x-5-x-5-x-x-x-5-x-5-x-x-x-5-x-5-x-x-x-5-x-5------------------------------|
E|-------------------------------------------------------------------------------------|

Fig5
e|-------------------------------------------------------------------------------------|
B|------------7--------------------------------7-------------7h10---7------------------|
G|--------------9-7-6---6h7-6--------------------9-7-6---6h7------9--------------------|
D|--7h9-7h9-7---------7-------9-7-9--7h9-7h9-7---------7-------------------------------|
A|-------------------------------------------------------------------------------------|
E|-------------------------------------------------------------------------------------|

Fig6
e|-------------------------------------------------------------------------------------|
B|----------------------------------7-------7-------7-------7--------------------------|
G|--7h9-7h9-7h9-7h9-7h9-7h9-7h9-7h9---9-7-9---9-7-9---9-7-9---9-7-9-7------------------|
D|-------------------------------------------------------------------------------------|
A|-------------------------------------------------------------------------------------|
E|-------------------------------------------------------------------------------------|


Fig1
D Em F#m G

D                 Em
Hari yang indah langitnya biru cerah
   F#m                 G
Bersemi dan berseri si cantik pelangi pagi
D                 Em
Surga di hatiku menari bahagia
  F#m                              G
Senyumnya ceria terlukis disana, manisnya sukacita

Fig2
Bm      A          D          G
Kuingin selalu disana, kita nikmati bersama
Bm      A          D          G
Kuingin selalu disana, semoga untuk selamanya

Fig3
D

Fig1
D              Em
Andai dihatimu seperti di hariku
F#m                                  G
Canda riang gembira, penuh sukacita, hangatnya muka dunia
D                    Em
Kita bersaudara satu keluarga
  F#m                                 G
Sama satu rasa, terikat tali cinta, dibalut kasih saying

Fig2
Bm      A          D          G
Kuingin selalu disana, kita nikmati bersama
Bm      A          D          G
Kuingin selalu disana, semoga untuk selamanya

Fig4
F#m G A D
Fig3
F#m G A

D F#m G A
Oh .. oh .. oh .. ooooh
D F#m G A
Oh .. oh .. oh .. ooooh

Fig5
D F#m G A
Oh .. oh .. oh .. ooooh
D F#m G A
Oh .. oh .. oh .. ooooh

D       Em         F#m        G
Kuingin selalu disana, kita nikmati bersama
D       Em         F#m        G
Kuingin selalu disana, semoga untuk selamanya

Fig6
D Em F#m G
D Em F#m G

Fig1
D Em F#m G
D Em F#m G D
            
Submit corrections

comments powered by Disqus
↑ Back to top | Netral Tabs for Hari Yang Indah. Lyrics for acoustic guitar and electric guitar. Tablatures and chords are parodies/interpretations of the original songs. You may use it for private study, scholarship, research or language learning purposes only