» » »

What's Next? Tabs (ver.1)

Artists:  A B C D E F G H I J K L M N O P Q R S T U V W X Y Z # 

What's Next? Tabs (ver.1)

Nesian Mystik
Rating:
0/5 (0 votes)

Hard to play? Try these video lessons and learn fast.
                key
h-hammer on
P-pull off
/slide up
\slide dpwn
pretty much universal stuff but just in case

Intro
                    db minor
e|--4h5p4---4—-----4-4-4-4-4-5-7-7-5-4-4h5p4----4—------------|
b|--------7----5--------------------------------7---7-7-5-4---|
g|-------------6----------------------------------------------|
d|-------------6----------------------------------------------|
a|-------------4----------------------------------------------|
e|------------------------------------------------------------|

e|---------------------------------------|
b|---------------------------------------|
g|-4-2-1h2p1---1-------------------------|
d|-----------4----4-2-1h2p1---1----------|
a|--------------------------4---4-2-0----|
e|------------------------------------4--|

Scale

e|-4-5-7------------------------------|
b|-------4-6-7------------------------|
g|-------------4-6-7------------------|
d|-------------------4-6--------------|
a|-----------------------4-5-7--------|
e|-----------------------------4-5-7--|

bridgy thing

e|9-9-9-9----------------------------------------------|
b|--------9-10-10-10-9-7-9/10\9-9-7-9/10\9-------------|
g|-----------------------------------------------------|
d|-----------------------------------------------------|
a|-----------------------------------------------------|
e|-----------------------------------------------------|

main

then after that do an A in a fast Spanish style strum
Then every 5 seconds or so you strum it then mute str8 away
Then when you get to a certain part in the song you go
A Ab then Db minor
     A     ab   Db minor
e|-5---4---4--------------------------------------------|
b|-5---4---5--------------------------------------------|
g|-6---5---6--------------------------------------------|
d|-7---6---6--------------------------------------------|
a|-7---6---4--------------------------------------------|
e|-5---4------------------------------------------------|

My guitar teacher tought me this song so no credit goes to me however if there's
something wrong dont b**ch to me about it cos i didn't tab it
and ill try and fix it this is most of the notes but my guitar teacher thinks there
is other hard to hear notes
Good Luck
            
Hard to play? Try these video lessons and learn fast. | Correct




comments powered by Disqus
↑ Back to top | Tablatures and chords are parodies/interpretations of the original songs. You may use it for private study, scholarship, research or language learning purposes only