» » »

Sun Goes Down Bass tabs (ver.2)

Artists:  A B C D E F G H I J K L M N O P Q R S T U V W X Y Z # 

Sun Goes Down Bass tabs (ver.2)

Nesian Mystik
Rating:
0/5 (0 votes)

Hard to play? Try these video lessons and learn fast.
                Hope you enjoy my first tab, I know its old lol. Thanks guys.

D

G---------------2---4----2---------2----|
D---0---2---4-----------------4---------|
A---------------------------------------|
E---------------------------------------|

A

G---------------------------------------|
D---------------2---2-------------------|
A---0---0---4---------------------------|
E---------------------------------------|

E

G---------------------------------------|
D---------------4---0-----------4---0---|
A---0---2---2-----------2---2-----------|
E---------------------------------------|

G

G---------------------------------------|
D---------------------------------------|
A-----------2---5-----------4---7-------|
E---3---3-----------5---5---------------|
            
Hard to play? Try these video lessons and learn fast. | Correct




comments powered by Disqus
↑ Back to top | Tablatures and chords are parodies/interpretations of the original songs. You may use it for private study, scholarship, research or language learning purposes only