» » »

Nesian Mystik, Sun Goes Down Tabs (ver.1)

Artists:  A B C D E F G H I J K L M N O P Q R S T U V W X Y Z # 

Sun Goes Down Tabs (ver.1)

Nesian Mystik Tabs
 Rating:
4/5 (4 votes)
Sun Goes Down lessons Tabs too difficult? Try these video lessons and learn fast
                -------------------------------------------------------------------------------
                             SONG NAME - Band Name
-------------------------------------------------------------------------------

Tuning: Standard

This is a tab for what i think is the actual version for sun goes down. :D
saw the other version but didn't sound like the same key as the song so here.
This is the bass part which can be played on the guitar.

e|----------------------------------------------------------------------------------|
B|----------------------------------------------------------------------------------|
G|-------------5--------------------------------------------------------------------|
D|-------5--8-----8--5--8-----------------------------------------------------------|
A|--6-6------------------------5-6-6h8------10-8-----10-8--------3--6-------5--8----|
E|-------------------------6-6----------8-8------8-8---------4-4-------6-6----------|


And here are the chords: D#, A#, Cm, G#, 

    D#    A#   Cm    G#
e|--6-----6----8-----4------|       Chords are played in this order: 
B|--8-----6----8-----4------|       D# , A# , Cm , G# , A# .    
G|--8-----7----8-----5------|       Listen to the song to get the feel of
D|--8-----8----10----6------|       the strumming pattern.  :D
A|--6-----8----10----6------|
E|--6-----6----8-----4------|

                         CHEERS.  
            
Submit corrections

comments powered by Disqus
↑ Back to top | Nesian Mystik Tabs for Sun Goes Down. Lyrics for acoustic guitar and electric guitar. Tablatures and chords are parodies/interpretations of the original songs. You may use it for private study, scholarship, research or language learning purposes only