» » »

Robbin' Hood Heroes Tabs (ver.1)

Artists:  A B C D E F G H I J K L M N O P Q R S T U V W X Y Z # 

Robbin' Hood Heroes Tabs (ver.1)

Nesian Mystik
Rating:
0/5 (0 votes)

Tabs too difficult? Try these video lessons and learn fast.
                -----------------------------------------------------------------------------
                             Robbin hood heroes - Nesian Mystik
-----------------------------------------------------------------------------

Guitar 1

e|---------13p10------------------------------------------8--6----------10p8-|
B|---------------11--------------13---11---8-----11--------------------------|
G|-----------------10----------10-----8------8------------------------8------|
D|------10------------12-----10---------------8----------------------8-------|
A|----12------------------------------------------------6----------8---------|
E|-10--------------------10-----------8--------------------------------------|

e|---------------------------------------------------------------------------|
B|----10-----10-----10-------------------------------------------------------|
G|----10--10--------10---------Repeats-in-whole-song-------------------------|
D|---------------------------------------------------------------------------|
A|-10------------10----------------------------------------------------------|
E|---------------------------------------------------------------------------|

Guitar 2 (intro and somewhere else)

e|---------------------------------------------------------------------------|
B|-8---10--10h11----8p6--8---3-------11/13--11-10---8/10--6---3\1------------|
G|---------------------------------------------------------------------------|
D|---------------------------------------------------------------------------|
A|---------------------------------------------------------------------------|
E|---------------------------------------------------------------------------|

and thats it thankz ;)
            
Tabs too difficult? Try these video lessons and learn fast.




comments powered by Disqus
↑ Back to top | Tablatures and chords are parodies/interpretations of the original songs. You may use it for private study, scholarship, research or language learning purposes only