» » »

Nesian Mystik, Let Me In Tabs (ver.1)

Artists:  A B C D E F G H I J K L M N O P Q R S T U V W X Y Z # 

Let Me In Tabs (ver.1)

Nesian Mystik Tabs
 Rating:
4/5 (4 votes)
Let Me In lessons Tabs too difficult? Try these video lessons and learn fast
1
                nesian mystik
let me in!
polysaturated


standard tuning

Please rate this tab!

main
----------5-5h8p5-------------5-5h8p5------------------------------------------------------------
--------6---------6---------6---------6-----------5-5h6p5----------------------------------------
----7p5-------------5---7p5-------------5-------5---------5--------5-------4---------------------
---------------------------------------------5h7-------------5--------5-------5------------------
--5-------------------5--------------------------------------------------------------------------
-------------------------------------------5---------------------5-------4-----------------------

----------3-3h5p3--------------3-3h5p3--------------5-5h6p5--------6-5-6----6-5------------------
--------3---------3----------3---------3----------5---------5-------------------5----------------
----3h5-------------3----3h5-------------3----5h7-------------5----------------------------------
--3--------------------3--------------------5--------------------6-------------------------------

thats it!
            
Submit corrections

comments powered by Disqus
↑ Back to top | Nesian Mystik Tabs for Let Me In. Lyrics for acoustic guitar and electric guitar. 1 Tablatures and chords are parodies/interpretations of the original songs. You may use it for private study, scholarship, research or language learning purposes only