» » »

Nerve Agents, Portland Bass tabs (ver.1)

Artists:  A B C D E F G H I J K L M N O P Q R S T U V W X Y Z # 

Portland Bass tabs (ver.1)

Nerve Agents Tabs
 Rating:
4/5 (4 votes)
Portland lessons Tabs too difficult? Try these video lessons and learn fast
                Nerve Agents/Portland

Intro: temperatures rising, sapping all the life…
|---------------------------------------------------------------------------------------------------------|
|-5\--------------7------------------7-9-10-11-9-7-------------7-------9-9-9-9-12-14-15-16-14-12----------|
|---------------9---9-7-6--------9---------------------------9---9-7-6------------------------------------|
|--------7-7-7------------7-7-7----------------------7-7-7------------------------------------------------|
Verse: lets look at the factors…
|--------------------------|
|--------------------------|  (4x)
|--------6-5-6-7-8-7-6-----|
|-7-7-7--------------------|
chorus: run away…
|----------------------------------------------------------------------|
|-----------------------7-9-7------------------------------------------|
|-0-0-0-5-7777777-9-9-9-------9-7-5--0-0-0-5-7777777-9-9-9-7-5---------|
|--------------------------------------------------------------7-5-6-7-|
 and now you are in new surroundings
|-------------------------------------------------|
|-------------------------------------------------|        (2x)
|-------6-5-6-7-8-6-5-------6-5-------------------|
|7-7-7-----------------7-7-7-----6-7-8-6-5--------|

chorus
						  after playing that 4x play this	
|----------------------------------|		         |---------------------------------------------|
|----------------------------------|   (4x)	         |---------------------------------------------|   (4x)
|------9-8-7-5-7-8-9-7-7-7-8-9-7---|		         |------9-8-7-5-7-8-9------9-8-7-5-------------|
|-7-7------------------------------|		         |-7-7------------------7-7---------4-5-6------|

intro 2x*

* Dante doesn’t play the intro the 2nd time through, but its cool and sounds good twice, so I do it.
            
Submit corrections

comments powered by Disqus
↑ Back to top | Nerve Agents Bass for Portland. Lyrics for acoustic guitar and electric guitar. Tablatures and chords are parodies/interpretations of the original songs. You may use it for private study, scholarship, research or language learning purposes only