>
 >
Heart Attack

Heart Attack Guitar Tabs

Nerina Pallot - Heart Attack chords, tabs, tablatures, lyrics

Guitar lessons | Add/correct | Request | Top 50 tabs Artists:  A B C D E F G H I J K L M N O P Q R S T U V W X Y Z 0-9

Heart Attack Guitar Tabs – Nerina Pallot

CD, Sheet music, Poster

Do you like Heart Attack? Share with your friends now
ChordsChords v2TabsUkuleleUkulele v2
heart attack

intro

e----------------------------------------------|second time do this
b--4p04h-4--4h5p4o4h--x4-----------0-----------|
g----------------------------------9-----------|
d----------------------------------9-----------|
a----------------------------------7-----------|
e----------------------------------------------|

verse 1

piano chords

e5,g5,d5,a5      anything else is E
              e------------|
              b--5---------|
              g--4---------|
              d--2---------|
              a------------|
              e------------|

bridge

e--0--0-0---0---------|
b--1--0---0-1-3-------|
g--0--0-----0-2-------|
d--2--2-----2-0-------|
a--3--2-----3---------|
e-----0---------------|

chorus

e-0-0-------0---0---------------|
b-0-0-------1-3-0---intro-------|all of these chords can be played as 5's
g-9-2--x3---0-2-0---------------|like rockers do, hehe
d-9-2-------2-0-2---------------|
a-7-0-------3---2---------------|
e---0-----------0---------------|

verse 2

e--------------|-----------------|---------------|
b--harmonics---|-----------------|-----8-7----x4-|
g-7-7----------|-----------------|---------9-----|
d-----7--------|--9--------------|---------------|
a-------7------|----9-7----------|---------------|
e--------------|-----------------|---------------|

chorus

repeat end of chorus

chorus

intro

THE END


this song was dedicated to Fritzie Bayrante who asked me to tab this song

so there u go fritso, hehe, and damascus will be on soon

bye bye bye bye bye bye bye bye bye bye bye bye bye bye bye bye bye

lmao, hehehehehehehehehehehehehehehe (i dno y i do this) heeeeeeeheheheeee





Comments


Popular Nerina Pallot tabs & chords
Everyones Gone To War Chords
Human 1 Chords
Love Is An Unmade Bed Chords
Sophia Chords
Sophia 1 Chords
Vena Cava Chords
Everyones Gone To War Tabs
Everyones Gone To War Ukulele
Human Ukulele
Is This A Low Ukulele


Song lyrics



↑ Back to top | Tablatures and chords are parodies/interpretations of the original songs. You may use it for private study, scholarship, research or language learning purposes only
© 2014 AZChords.com Contact us | Privacy policy | DMCA | Add/correct tabs | Request tabs | Top 50 tabs