» » »

Nerf Herder, Pervert Tabs (ver.1)

Artists:  A B C D E F G H I J K L M N O P Q R S T U V W X Y Z # 

Pervert Tabs (ver.1)

Nerf Herder Tabs
Rating:
4/5 (3 votes)
Pervert lessons Tabs too difficult? Try these video lessons and learn fast
                -------------------------------------------------------------------------------
Pervert – Nerf Herder
-------------------------------------------------------------------------------

I just found this on a cd of mine and it’s a cool song nice and easy
to play so I thought I’d tab it out for ya’ll as it’s not on here,
remember no flaming if it’s a bad tab!
 
Intro and Chorus  
e|--------------------------------------------------------------|
B|--------------------------------------------------------------|
G|-999999--------999999--------999999--------555555-------------|
D|-999999-555555-999999-555555-999999-555555-555555-777777------|
A|-777777-555555-777777-555555-777777-555555-333333-777777------|
E|--------333333--------333333--------333333--------555555------|
(you can play that as wll if you like)
e|--------------------------------------------------------------|
B|--------------------------------------------------------------|
G|-------------------------------------------555555-------------|
D|-222222-555555-222222-555555-222222-555555-555555-777777------|
A|-222222-555555-222222-555555-222222-555555-333333-777777------|
E|-000000-333333-000000-333333-000000-333333--------555555------|

Verse
e|-------------------------------------------------------------|
B|-------------------------------------------------------------|
G|--------444444-555555--------555555--------555555------------|
D|-555555-444444-555555-555555-555555-555555-555555-777777-----|
A|-555555-222222-333333-555555-333333-555555-333333-777777-----|
E|-333333---------------333333--------333333--------555555-----|
   ****** ****** ****** ****** ****** ****** ****** ******

Bridge 1
e|--------------------------------------|
B|--------------------------------------|
G|---------------555555-----------------|
D|-555555-222222-555555-777777----------|
A|-555555-222222-333333-777777----------|
E|-333333-000000--------555555----------|

Bridge 2
e|------------------------------------------------|
B|------------------------------------------------|
G|-99999999---12-12-12-12-12-12-12-12-------------|
D|-xxxxxxxx---x--x--x--x--x--x--x--x--------------|
A|-77777777---10-10-10-10-10-10-10-10-------------|
E|------------------------------------------------|

Bridge 3
e|-3---2---3---3---3---3---3---5---3---2--3--3--------------|
B|-3---3---5---3---5---3---5---7---3---3--5--3--------------|
G|-4---4---5---4---5---4---5---7---4---4--5--4----5<--------|
D|-5---4---5---5---5---5---5---7---5---4--5--5----5<--------|
A|-5---2---3---5---3---5---3---5---5---2--3--5----3<--------|
E|-3-----------3-------3-----------3---------3--------------|


Intro 
Verse x2
Chorus 
Verse x2
Chorus
Bridge 1 x2
Bridge 2 (play intro behind that)
Bridge 3 (just pick and strum those chords!)
Chorus x2
Bridge 1 x2
Bridge 2 x2

Well think that’s about everything for that song! enjoy and don’t
===============================================================================
            
Submit corrections

comments powered by Disqus
↑ Back to top | Nerf Herder Tabs for Pervert. Lyrics for acoustic guitar and electric guitar. Tablatures and chords are parodies/interpretations of the original songs. You may use it for private study, scholarship, research or language learning purposes only