» » »

Love Sandwich Bass tabs (ver.1)

Artists:  A B C D E F G H I J K L M N O P Q R S T U V W X Y Z # 

Love Sandwich Bass tabs (ver.1)

Nerf Herder
Rating:
0/5 (0 votes)

Hard to play? Try these video lessons and learn fast.
                (1)
Tuning: Standard (E A D G)

The whole song revolves around the same riff except for the solo. I've tabbed it out the easyest as i thought it would be to read, if u cant be bothered to play the muted notes there not acually important apart from in the intro, so u can skip them after that if u like. also i'd to give credit to madmat on the tabalorium web site for giving me the initial idea of how to tab this song.

Intro/Verse/Chorus/Intermission
G|-----------------------------------------------------------------|
D|------------------------3-3-3-2----------------------------------|
A|--5---*-0-3-5---0-3-5-0-----------5---*-0-3-5---0-3-5-0----------|
E|--------------------------------------------------------3-3-3-1--| X 2

Solo
G|--------------------------|-------------------------|
D|--0-----7-5---0h4---------|--0-----7-5---0h2--rest--|  
A|------5-------------0-3-4-|------5------------------| 
E|--------------------------|-------------------------| 

G|--------------------------|-----------------------------|
D|--0-----7-5---0h2---------|--0-----7-5---0h2------------|
A|------5-------------0-3-4-|------5----------------------|
E|--------------------------|------------------0330355----|

G|---------------------|--------------------|
D|---------------------|--------------------|
A|--5^---3----------3^-|--5^---3-------rest-|
E|---------555-2-------|---------555-2-rest-|

G|------------------|--------------------|
D|------------------|---------------3-5--|
A|--5^---3-------3^-|--5^-----3-4-5------|
E|---------555-2^---|-----3-5------------|


Ending
G|-----------------------------------------------------------------|
D|------------------------3-3-3-2----------------------------------|
A|--5---*-0-3-5---0-3-5-0-----------5---*-0-3-5---0-3-5-0----------|
E|--------------------------------------------------------3-3-3-1--|

G|------------------------------------------------------------|
D|------------------------3-3-3-2-----------------------------|
A|--5---*-0-3-5---0-3-5-0-----------5---*-0-3-5---0-3-5-0-----|
E|--------------------------------------------------------3~--| 

Key
* = Mute note
h = hammer on
~ = sustain/hold note
^ = bend string (in this tab you have to bend vibrato style)


Order

Intro 
Verse 
Chorus
Verse 
Chorus
Solo
Intermission
Verse 
Chorus 
Ending
            
Hard to play? Try these video lessons and learn fast. | Correct




comments powered by Disqus
↑ Back to top | Tablatures and chords are parodies/interpretations of the original songs. You may use it for private study, scholarship, research or language learning purposes only