array
(
    
'lamerthanlame1' => 'lamerthanlame1'
    'nerfherder' 
=> 'nerfherder'
)
Lamer Than Lame Tabs (ver. 2) by Nerf Herder @ AZ CHORDS.COM
» » »

Lamer Than Lame Tabs (ver.2)

Artists:  A B C D E F G H I J K L M N O P Q R S T U V W X Y Z # 

Lamer Than Lame Tabs (ver.2)

Nerf Herder
Rating:
0/5 (0 votes)

Hard to play? Try these video lessons and learn fast.
                -----------------------------
Nerf Herder - Lamer than Lame
-----------------------------
I've not seen this song on the net.It's easy and i'm almost positive it's right.Listen to the CD for the parts.Standard tuning.All chords are power chords.

Fill
|-----------0-2-0-------------------------------------0-2-0---------------3-2-0----
|-----------------3-------------3-----0---------------------3--------------------3-
|-4-4-4-4-------------------------0-2-------4-4-4-4--------------------------------
|-4-4-4-4-------------5-5-5-5---------------4-4-4-4--------------5-5-5-5-----------
|-2-2-2-2-------------5-5-5-5---------------2-2-2-2--------------5-5-5-5-----------
|---------------------3-3-3-3------------------------------------3-3-3-3-----------

The bass plays a couple bars under the singing then the guitars come in with this:

Verse
|------------------------------------
|------------------------------------
|--5-4-4-4-4-4-4-4-4-----------------   x4
|--5-4-4-4-4-4-4-4-4--5-5-5-5-5-5-5--
|--3-2-2-2-2-2-2-2-2--5-5-5-5-5-5-5--
|---------------------3-3-3-3-3-3-3--

Bridge
| C | B G | C | D |

Chorus
|-----------------------------------------------------------------
|-----------------------------------------------------------------
|--------------4--5-5-5-5-5-5-5-5-----------------4-4-4-4-4-4-4-4-
|--2-2-2-2-2-2-4--5-5-5-5-5-5-5-5-5-5-5-5-5-5-5-5-4-4-4-4-4-4-4-4-   x2
|--2-2-2-2-2-2-2--3-3-3-3-3-3-3-3-5-5-5-5-5-5-5-5-2-2-2-2-2-2-2-2-
|--0-0-0-0-0-0--------------------3-3-3-3-3-3-3-3-----------------

Post chorus
|--------------------------------------
|--------------------------------------
|--5-5-5-5-5-5-5-5-5-5-5-5-5-5---------
|--5-5-5-5-5-5-5-5-5-5-5-5-5-5---------
|--3-3-3-3-3-3-3-3-3-3-3-3-3-3-5-3-5-3-
|--------------------------------------

Middle
| C | G | C | G | C | G | C | D |
| G | G | C | D | x a couple then singing starts with this:
| C | B G | C | D | D | NC | 
                       ---- Drum fill
            
Hard to play? Try these video lessons and learn fast. | Correct




comments powered by Disqus
↑ Back to top | Tablatures and chords are parodies/interpretations of the original songs. You may use it for private study, scholarship, research or language learning purposes only