» » »

Hospital Tabs (ver.1)

Artists:  A B C D E F G H I J K L M N O P Q R S T U V W X Y Z # 

Hospital Tabs (ver.1)

Nerf Herder
Rating:
0/5 (0 votes)

Hard to play? Try these video lessons and learn fast.
                =-=-=-=-=-=-=-=-=-=-=-=-=-=-=-=-=-=-=-=

  This is my first tab  ever, so be nice,
  Standard E  tuning,  most  the song  is 
  done  with   distortion, then some nice
  effect  on  the   solo,  you'll have to
  listen  to  the  song  to  get  perfect
  timing, i'm pretty sure this was  never
  tabbed before, so, thats why  im  doing
  IT WAS NOT  STOLEN,  AND  I SPENT  MANY
  MINUTES TABBING  IT OUT...  rock on and
  keep rocking to nerf herder,  cuz  they
  rule the earth, wooooooooooahhh yeah :)

  =-=-=-=-=-=-=-=-=-=-=-=-=-=-=-=-=-=-=-=

   Intro / Main Riff
  |-------------------------------------|
  |-------------------------------------|
  |----------44444444-------------------|
  |-22222222-44444444-44444444-77777777-|
  |-22222222-22222222-44444444-77777777-|
  |-00000000----------22222222-55555555-|

   Bridge (Played before chorus)
  |-------------------------------------|
  |-------------------------------------|
  |----------4--------------------------|
  |-2--------4--------4--------7777x----|
  |-2--------2--------4--------7777x----|
  |-0-----------------2--------5555x----|

   Chorus
  |-------------------------------------|
  |-------------------------------------|
  |----------44-------------------------|
  |-22-------44-------44-------77x------|
  |-22-------22-------44-------77x------|
  |-00----------------22-------55x------|

   Solo
  |-------------------------------------|
  |-------------------------------------|
  |---------CAN SOMEONE ELSE------------|
  |---------TAB OUT THE SOLO------------|
  |-------------------------------------|
  |-------------------------------------|
            
Hard to play? Try these video lessons and learn fast. | Correct




comments powered by Disqus
↑ Back to top | Tablatures and chords are parodies/interpretations of the original songs. You may use it for private study, scholarship, research or language learning purposes only