» » »

Do You Like Waffles Tabs (ver.4)

Artists:  A B C D E F G H I J K L M N O P Q R S T U V W X Y Z # 

Do You Like Waffles Tabs (ver.4)

Nerf Herder
Rating:
5/5 (1 vote)

Hard to play? Try these video lessons and learn fast.
                This is an awesome song.  Me and my friends decided to play it for our school's talent
show so I figured out the guitar part and here it is!  This song is really fun to play
and pretty easy once you get the beat down.  If you have never heard it visit this site
play, awesome guitar riff, enjoy this one and have fun with it.

Verse 1
|------------------------------------------------------------------|
|------------------------------------------------------------------|
|------------------------------------------------------------------|
|------------------------------------------------------------------|
|-----10--10--10--10--10----9---9---9---9---8--7-------------------|
|-----12--12--12--12--12---11--11--11--11--10--9-------------------|


This verse is played throughout the song
Verse 2
|------------------------------------------------|
|------------------------------------------------|
|------------------------------------------------|
|------------------------------------------------|
|-------------------------------------9--12------|
|-----5-5--9--12---10-10-10-10-------------------|
            
Hard to play? Try these video lessons and learn fast. | Correct




comments powered by Disqus
↑ Back to top | Tablatures and chords are parodies/interpretations of the original songs. You may use it for private study, scholarship, research or language learning purposes only