» » »

You Know What Bass tabs (ver.1)

Artists:  A B C D E F G H I J K L M N O P Q R S T U V W X Y Z # 

You Know What Bass tabs (ver.1)

N.E.R.D.
Rating:
0/5 (0 votes)

Hard to play? Try these video lessons and learn fast.
                Instrument: Bass

I think it's pretty much the same tune of the song.
It sound pretty good and it's easy to play.
I hope you like it!

Intro / Verse / Chorus

G|--------------------------------------------------|
D|--------------------------------------------------|
A|-7--7--7---4--4--4----------------------------4h6-|
E|---------------------4--4--4---2h4--4--4---4h6----|

G|-----------------------------------------------------------|
D|---------4-6-----------6-8-9-------------------------------|
A|-7--7--7-------4--4--4-------------------------------------|
E|-------------------------------4--4--4---2h3h4--4--4---4x4-|

Bridge part: "This ain't right..." (2:58)

G|------7-5--7----------5-4---------------------------------|
D|----------------------------------------------------------|
A|-5-5-----------3-3-3--------------------------------------|
E|-------------------------------5-5--3-3h5p3--5-5--3-3h5p3-|  X 3

G|------7-5--7----------5-4----------------------|
D|-----------------------------------------------|
A|-5-5-----------3-3-3---------------------------|
E|-------------------------------5-5--3-3h5p3--5-|

And then again the Chorus part 'till the end.
            
Hard to play? Try these video lessons and learn fast. | Correct




comments powered by Disqus
↑ Back to top | Tablatures and chords are parodies/interpretations of the original songs. You may use it for private study, scholarship, research or language learning purposes only