» » »

Windows Tabs (ver.1)

Artists:  A B C D E F G H I J K L M N O P Q R S T U V W X Y Z # 

Windows Tabs (ver.1)

N.E.R.D.
Rating:
0/5 (0 votes)

Hard to play? Try these video lessons and learn fast.
                This is Windows,by N*E*R*D*, a very easy song,and the third song from their



Mainly it's THIS:

e|-----------------------------------|
B|-----------------------------------|
G|----4--222-----44------wait--------|
D|---------------------two--counts---|
A|-2----------2--------then-repeat---|
E|-----------------------------------|

And for the chorus:


e|------------------------------|
B|------------------------------|
G|-77777777666666664-4-444-4-44-|
D|-77777777666666664-4-444-4-44-|
A|-55555555444444442-2-222-2-22-|
E|------------------------------|

For the bass tab, use the main tab and some times this one:

G|----4--222-----44--------|
D|-------------------------|
A|-2----------2----------0-|
E|-------------------0-2---|

Have Fun
            
Hard to play? Try these video lessons and learn fast. | Correct




comments powered by Disqus
↑ Back to top | Tablatures and chords are parodies/interpretations of the original songs. You may use it for private study, scholarship, research or language learning purposes only