» » »

N.E.R.D., Spaz Tabs (ver.1)

Artists:  A B C D E F G H I J K L M N O P Q R S T U V W X Y Z # 

Spaz Tabs (ver.1)

N.E.R.D. Tabs
 Rating:
4/5 (4 votes)
Spaz lessons Tabs too difficult? Try these video lessons and learn fast
                This is the basic tune for Spaz
Check it out:
and rate and comment!

-------------------------------------------------------------------------------
                            SPAZ - N.E.R.D
-------------------------------------------------------------------------------

Tuning: Standard

/=slide up
\=slide down
~=let it ring!

  Intro x4  || after the 4th time play this (Main Tune)
e|----------||---------------8/13-13--13--13-13--|
B|---6-6----||-----------------------------------| (i think its like x8)
G|----------||--//10-10-10-----------------------| Do that 2nd part
D|-3~-------||-3//-------------------------------| until the little
A|----------||-----------------------------------| drop in tune part
E|----------||-----------------------------------| of the song comes in
which goes like this:

e|13\-------------------------------|
B|---9-9-9\6-6-6\5\4\3\2\1-1-1------| then do the main tune again
G|----------------------------------|
D|----------------------------------|
A|----------------------------------|
E|----------------------------------|

CHORUS:
(I'm rite here, and I aint goin no where!...)
while doing the main tune have Guitar 2 play this:
e|-------------------|
B|-------------------|
G|-------------------|
D|3--4-3--4--3-------|
A|3--4-3--4--3-------|
E|1--2-1--2--1-------|
   ^
you mite wanna slide in between the power chords
            
Submit corrections

comments powered by Disqus
↑ Back to top | N.E.R.D. Tabs for Spaz. Lyrics for acoustic guitar and electric guitar. Tablatures and chords are parodies/interpretations of the original songs. You may use it for private study, scholarship, research or language learning purposes only