>
 >
Sooner Or Later

Sooner Or Later Guitar Tabs

N.E.R.D. - Sooner Or Later chords, tabs, tablatures, lyrics

Guitar lessons | Add/correct | Request | Top 50 tabs Artists:  A B C D E F G H I J K L M N O P Q R S T U V W X Y Z 0-9

Sooner Or Later Guitar Tabs – N.E.R.D.

CD, Sheet music, Poster

Do you like Sooner Or Later? Share with your friends now
ChordsChords v2TabsUkulele
-----------------------------------------------------------------------------
                             Sooner or Later - N.E.R.D
-----------------------------------------------------------------------------
This solo is up there is one of the best I've heard in a while.I'll now try to tab it out.


Key:
    ~  means vibrato
    h  hammer on
    p  pull off
    ^  Bend up (ie: 12^(14) means bend 12 up to 14.)
    v  Bend down  (ie: 3v(2) means bend 3 down to a 1.)
    ph--- pinch harmonic
    // Tremolo Picking
    /  slide up
    \  slide down
Bit playing in background before the solo in chorus.
|------------------|           |-----------|
|------------------|           |--------7--|
|--6--8--8--8------| x7  then  |---6--8--8-| All this repeats
|------------------|           |-----------|
|------------------|           |-----------|
|------------------|           |-----------|


Solo:
|-----7-9--11^(12)--11--7h9~~~---------------8--------------------------------|
|-7-9--------------------------11~~~--11--12---9--------7~~~---------7-7-9-11-|
|---------------------------------------------------6-8----------6h8----------|
|-----------------------------------------------------------------------------|
|-----------------------------------------------------------------------------|
|-----------------------------------------------------------------------------|

|-9-11-11-11^(12)v-11----11-14--14-16--18--18^(19)v-18--16-14--16-16-16~~---|
|---------------------------------------------------------------------------|
|---------------------------------------------------------------------------|
|---------------------------------------------------------------------------|
|---------------------------------------------------------------------------|
|---------------------------------------------------------------------------|

|----11-14--14-16---21^(22)v21-----19p16-----16------------------------------|
|---------------------------------------19p16--19p16-------16----------------|
|----------------------------------------------------18p16---18p16---16------|
|-----------------------------------------------------------------18---18p16-|
|----------------------------------------------------------------------------|
|----------------------------------------------------------------------------|

|-------------------------------------------------------------------8--------|
|-------------------------------------------------------------11-12---9------|
|------16---------16----------16-18-18^(19)-18^(19)-18^(20)v18----------8~~--|
|-16-18---18-16-18--18-16-18-------------------------------------------------|
|----------------------------------------------------------------------------|
|----------------------------------------------------------------------------|
Delay here, good luck with that.
|-19p16--19p16--19p16--19p16--19p16--19p16--19p16--19p16--19p16--19p16--19p16-|
|------19-----19-----19-----16-----16-----16-----19-----19-----19-----19------|
|-----------------------------------------------------------------------------|
|-----------------------------------------------------------------------------|
|-----------------------------------------------------------------------------|
|-----------------------------------------------------------------------------|
            Do this Eleven Times
|---19p16----|-16--19p16---|--16--19-19^-19^(20)v19--|-19p16---------|
|-19-----19--|----------19-|-------------------------|------19p16----|
|------------|-------------|-------------------------|-----------18--|x17
|------------|-------------|-------------------------|---------------|Times
|------------|-------------|-------------------------|---------------|
|------------|-------------|-------------------------|---------------|

|------16-19--19^-19^(20)v19--//21-//19-//18--////14-//16-//18-//20-//21-//20-|
|-16-19-----------------------------------------------------------------------|
|-----------------------------------------------------------------------------|
|-----------------------------------------------------------------------------|
|-----------------------------------------------------------------------------|
|-----------------------------------------------------------------------------|

|-//16--//19-//16-//14-//16-//18--19^-19^-19^(20)---|--16p14------|
|---------------------------------------------------|-------16p14-|
|---------------------------------------------------|-------------|x20 times
|---------------------------------------------------|-------------|I think
|---------------------------------------------------|-------------|
|---------------------------------------------------|-------------|

|------14-16-18^(19)-18--16-14-16-16~~-----14-16-18^(19)-18--16-14-16-16~~--|
|-14-16-------------------------------14-16---------------------------------|
|---------------------------------------------------------------------------|
|---------------------------------------------------------------------------|
|---------------------------------------------------------------------------|
|---------------------------------------------------------------------------|

|------14-16-18^(19)--16-14-16-16~--18^(19)--16-14-16-16~~-16-14-----20^(21-|
|-14-16---------------------------------------------------------------------|
|---------------------------------------------------------------------------|
|---------------------------------------------------------------------------|
|---------------------------------------------------------------------------|
|---------------------------------------------------------------------------|
                      Thirteen Times
|-18-19-20--16~-----14-|-19^(20)-|--------16-19-//21-//19-//18-//14-18^(19)--|
|----------------16----|---------|--16-19------------------------------------|
|----------------------|---------|-------------------------------------------|
|----------------------|---------|-------------------------------------------|
|----------------------|---------|-------------------------------------------|
|----------------------|---------|-------------------------------------------|
                 Pre-bend (Thirteen Times)
|-14-16~------7-9-|-(12)v11-|--7h9~~--7-9--11-----16-18-18^-18^(19)-16-14-16~-|
|---------7-9-----|---------|--------------14^(16)----------------------------|
|-----------------|---------|-------------------------------------------------|
|-----------------|---------|-------------------------------------------------|
|-----------------|---------|-------------------------------------------------|
|-----------------|---------|-------------------------------------------------|

|-20^(21)-20^(21)-20^(21)-20^(21)-20^(21)-20^(21)v20p16---20^(21)-20^(21)---|
|---------------------------------------------------------------------------|
|---------------------------------------------------------------------------|
|---------------------------------------------------------------------------|
|---------------------------------------------------------------------------|
|---------------------------------------------------------------------------|

|-20^(21)-20^(21)-20^(21)--21--22^-22^(24)-22^(24)-22^(24)-22^(24)-22^(24)--|
|---------------------------------------------------------------------------|
|---------------------------------------------------------------------------|
|---------------------------------------------------------------------------|
|---------------------------------------------------------------------------|
|---------------------------------------------------------------------------|

|-22^(24)-22^(24)\----End-----------------------------------------------------|
|-----------------------------------------------------------------------------|
|-----------------------------------------------------------------------------|
|-----------------------------------------------------------------------------|
|-----------------------------------------------------------------------------|
|-----------------------------------------------------------------------------|

If you have any problems with it PM me.





Comments


Popular N.E.R.D. tabs & chords
Hot N Fun Bass Tabs
Rock Star Bass Tabs
She Wants To Move Bass Tabs
Bobby James Chords
Maybe 2 Chords
Lapdance Tabs
Lapdance 1 Tabs
Rockstar Intro Tabs
Help Me Ukulele
Run To The Sun Ukulele


Song lyrics



↑ Back to top | Tablatures and chords are parodies/interpretations of the original songs. You may use it for private study, scholarship, research or language learning purposes only
© 2014 AZChords.com Contact us | Privacy policy | DMCA | Add/correct tabs | Request tabs | Top 50 tabs