>
 >
Provider

Provider Guitar Tabs

N.E.R.D. - Provider chords, tabs, tablatures, lyrics

Guitar lessons | Add/correct | Request | Top 50 tabs Artists:  A B C D E F G H I J K L M N O P Q R S T U V W X Y Z 0-9

Provider Guitar Tabs – N.E.R.D.

CD, Sheet music, Poster

Do you like Provider? Share with your friends now
Bass TabsBass Tabs v2ChordsChords v2Tabs
Guitar Tablature, Chords, Bass Tablature & Lyrics

____________________________Guitar Tabs____________________________________

STANDARD TUNING

Verse (x4) / Chorus(x2)

    Em       A                Am(at 5th fret)        Em
E--0--------0----------------5----------------------0--------------------
B--0--------2----------------5----------------------0--------------------
G--0--------2----------------5----------------------0--------------------
D--2--------2----------------7----------------------2--------------------
A--2--------0----------------0----------------------2--------------------
E--0------------------------------------------------0--------------------

Bridge (x2)

E---------------------------------5------------5-------------------------
B---------------------------5-------5----5-------5-----------------------
G-------0------------0--------6-------6----6-------6---------------------
D--2------2----2-------2--------7------------7---------------------------
A----2------2----2-------2-----------------------------------------------
E------0-----------0-----------------------------------------------------

E--------5-------------5-------------------------------------------------
B--5-------5-----5-------5-----------------------------------------------
G----5-------5-----5-------7---------0------------0----------------------
D------7-------------5---------2-------2----2-------2--------------------
A--------------------------------2-------2----2-------2------------------
E----------------------------------0------------0------------------------

____________________________Guitar Chords__________________________________

STANDARD TUNING

Verse (x4) / Chorus(x2)

Em
A
Am (at 5th fret)
Em

Bridge (x2)

Em
A (at 5th fret)
Am (at 5th fret)
Em

______________________________Bass Tabs____________________________________

STANDARD TUNING

Entire Song:

G-------2-----------------------------------------------------------------
D--------------2----------------------------------------------------------
A----------0--------------------------------------------------------------
E---0---------------------------------------------------------------------

______________________________LYRICS_______________________________________

Woke up I had the same clothes on I had on last night 
Damn 
I must have passed out 
And cash is just like the clothes I worn yesterday 
We are broke 
Damn 
I gotta get my ass out 
I went to see what my friend was talking about 
Drugs 
He told me cocaine would get you clout 
My momma said he's trouble and schools my route 
But I went to high school and got kicked out 
So I'm driving this truck down the 95 
I pray to God I make it home alive 
I don't get pulled over by the man 
I just want to make it home to hold your hand 

[Chorus]

Goodbye beloved one 
Do you know what I am 
If you don't see my face no more 
I'm a provider girl, gotta face the streets tonight 

Goodbye beloved one 
Do you know what I am 
You don't see my face no more 
I'm a rider, girl gotta face the streets tonight 
You say you don't want me to go but I have to 
Please don't weep 
I love you 

I refuse to be a bum 
Especially coming where I'm from 
I'm a provider girl 
And I love you 

So it's just like I said before 
Heading down 95 
Dodging Johnny law 
I don't need a ticket though I never got one 
If he pulls me over 
He can feel my shotgun 
I think about life pull down my hat 
It's just like this road I don't know where I'm at 
I don't want to be another cocaine story 
Will I find my sanity 
Where I find my glory 
Come on 

[Repeat Chorus]

Someday, Someday, this will be over 
We'll raise a family 
I'll get a job and I'll be a voter 
And if I die 
It will change you 
Change you 
I watch over a family 
But only as an angel 

So don't tell me you don't know what you see 
When you're looking at a motherfucker just like me 
I'm a provider girl 
I said don't tell me you don't know what you see 
When you're looking at a motherfucker just like me 
I'm a rider girl 

[Repeat Chorus]

I love you girl 
I'm doing this for us 
I don't know any better 
What am I supposed to do 
Nothing I love you
____________________________________________________________________________


noone ever really dies





Comments


Popular N.E.R.D. tabs & chords
Maybe Bass Tabs
You Know What Bass Tabs
Bobby James Chords
Hypnotize U Chords
She Wants To Move Chords
You Know What Chords
Don't Worry About It Tabs
I've Seen The Light Tabs
Lapdance 2 Tabs
Run To The Sun Ukulele


Song lyrics



↑ Back to top | Tablatures and chords are parodies/interpretations of the original songs. You may use it for private study, scholarship, research or language learning purposes only
© 2014 AZChords.com Contact us | Privacy policy | DMCA | Add/correct tabs | Request tabs | Top 50 tabs